  0
SECTION
  2
HEADER
  9
$ACADVER
  1
AC1021
  9
$ACADMAINTVER
 70
    25
  9
$DWGCODEPAGE
  3
ANSI_1252
  9
$INSBASE
 10
0.0
 20
0.0
 30
0.0
  9
$EXTMIN
 10
1.000000000000000E+20
 20
1.000000000000000E+20
 30
1.000000000000000E+20
  9
$EXTMAX
 10
-1.000000000000000E+20
 20
-1.000000000000000E+20
 30
-1.000000000000000E+20
  9
$LIMMIN
 10
0.0
 20
0.0
  9
$LIMMAX
 10
12.0
 20
9.0
  9
$ORTHOMODE
 70
     0
  9
$REGENMODE
 70
     1
  9
$FILLMODE
 70
     1
  9
$QTEXTMODE
 70
     0
  9
$MIRRTEXT
 70
     1
  9
$LTSCALE
 40
1.0
  9
$ATTMODE
 70
     1
  9
$TEXTSIZE
 40
0.2
  9
$TRACEWID
 40
0.05
  9
$TEXTSTYLE
  7
Standard
  9
$CLAYER
  8
Predeterminada
  9
$CELTYPE
  6
ByLayer
  9
$CECOLOR
 62
   256
  9
$CELTSCALE
 40
1.0
  9
$DISPSILH
 70
     0
  9
$DIMSCALE
 40
1.0
  9
$DIMASZ
 40
0.18
  9
$DIMEXO
 40
0.0625
  9
$DIMDLI
 40
0.38
  9
$DIMRND
 40
0.0
  9
$DIMDLE
 40
0.0
  9
$DIMEXE
 40
0.18
  9
$DIMTP
 40
0.0
  9
$DIMTM
 40
0.0
  9
$DIMTXT
 40
0.18
  9
$DIMCEN
 40
0.09
  9
$DIMTSZ
 40
0.0
  9
$DIMTOL
 70
     0
  9
$DIMLIM
 70
     0
  9
$DIMTIH
 70
     1
  9
$DIMTOH
 70
     1
  9
$DIMSE1
 70
     0
  9
$DIMSE2
 70
     0
  9
$DIMTAD
 70
     0
  9
$DIMZIN
 70
     0
  9
$DIMBLK
  1

  9
$DIMASO
 70
     1
  9
$DIMSHO
 70
     1
  9
$DIMPOST
  1

  9
$DIMAPOST
  1

  9
$DIMALT
 70
     0
  9
$DIMALTD
 70
     2
  9
$DIMALTF
 40
25.4
  9
$DIMLFAC
 40
1.0
  9
$DIMTOFL
 70
     0
  9
$DIMTVP
 40
0.0
  9
$DIMTIX
 70
     0
  9
$DIMSOXD
 70
     0
  9
$DIMSAH
 70
     0
  9
$DIMBLK1
  1

  9
$DIMBLK2
  1

  9
$DIMSTYLE
  2
STANDARD_ACAD
  9
$DIMCLRD
 70
     0
  9
$DIMCLRE
 70
     0
  9
$DIMCLRT
 70
     0
  9
$DIMTFAC
 40
1.0
  9
$DIMGAP
 40
0.09
  9
$DIMJUST
 70
     0
  9
$DIMSD1
 70
     0
  9
$DIMSD2
 70
     0
  9
$DIMTOLJ
 70
     1
  9
$DIMTZIN
 70
     0
  9
$DIMALTZ
 70
     0
  9
$DIMALTTZ
 70
     0
  9
$DIMUPT
 70
     0
  9
$DIMDEC
 70
     4
  9
$DIMTDEC
 70
     4
  9
$DIMALTU
 70
     2
  9
$DIMALTTD
 70
     2
  9
$DIMTXSTY
  7
Standard
  9
$DIMAUNIT
 70
     0
  9
$DIMADEC
 70
     0
  9
$DIMALTRND
 40
0.0
  9
$DIMAZIN
 70
     0
  9
$DIMDSEP
 70
    46
  9
$DIMATFIT
 70
     3
  9
$DIMFRAC
 70
     0
  9
$DIMLDRBLK
  1

  9
$DIMLUNIT
 70
     2
  9
$DIMLWD
 70
    -2
  9
$DIMLWE
 70
    -2
  9
$DIMTMOVE
 70
     2
  9
$DIMFXL
 40
1.0
  9
$DIMFXLON
 70
     0
  9
$DIMJOGANG
 40
0.7853981633974483
  9
$DIMTFILL
 70
     0
  9
$DIMTFILLCLR
 70
     0
  9
$DIMARCSYM
 70
     0
  9
$DIMLTYPE
  6

  9
$DIMLTEX1
  6

  9
$DIMLTEX2
  6

  9
$LUNITS
 70
     2
  9
$LUPREC
 70
     2
  9
$SKETCHINC
 40
0.1
  9
$FILLETRAD
 40
0.5
  9
$AUNITS
 70
     0
  9
$AUPREC
 70
     0
  9
$MENU
  1
.
  9
$ELEVATION
 40
0.0
  9
$PELEVATION
 40
0.0
  9
$THICKNESS
 40
0.0
  9
$LIMCHECK
 70
     0
  9
$CHAMFERA
 40
0.0
  9
$CHAMFERB
 40
0.0
  9
$CHAMFERC
 40
0.0
  9
$CHAMFERD
 40
0.0
  9
$SKPOLY
 70
     0
  9
$TDCREATE
 40
2459319.503003032
  9
$TDUCREATE
 40
2459319.419669699
  9
$TDUPDATE
 40
2459319.503020891
  9
$TDUUPDATE
 40
2459319.419687558
  9
$TDINDWG
 40
0.0000000116
  9
$TDUSRTIMER
 40
0.0000000116
  9
$USRTIMER
 70
     1
  9
$ANGBASE
 50
0.0
  9
$ANGDIR
 70
     0
  9
$PDMODE
 70
     0
  9
$PDSIZE
 40
0.0
  9
$PLINEWID
 40
0.0
  9
$SPLFRAME
 70
     0
  9
$SPLINETYPE
 70
     6
  9
$SPLINESEGS
 70
     8
  9
$HANDSEED
  5
43F
  9
$SURFTAB1
 70
     6
  9
$SURFTAB2
 70
     6
  9
$SURFTYPE
 70
     6
  9
$SURFU
 70
     6
  9
$SURFV
 70
     6
  9
$UCSBASE
  2

  9
$UCSNAME
  2

  9
$UCSORG
 10
0.0
 20
0.0
 30
0.0
  9
$UCSXDIR
 10
1.0
 20
0.0
 30
0.0
  9
$UCSYDIR
 10
0.0
 20
1.0
 30
0.0
  9
$UCSORTHOREF
  2

  9
$UCSORTHOVIEW
 70
     0
  9
$UCSORGTOP
 10
0.0
 20
0.0
 30
0.0
  9
$UCSORGBOTTOM
 10
0.0
 20
0.0
 30
0.0
  9
$UCSORGLEFT
 10
0.0
 20
0.0
 30
0.0
  9
$UCSORGRIGHT
 10
0.0
 20
0.0
 30
0.0
  9
$UCSORGFRONT
 10
0.0
 20
0.0
 30
0.0
  9
$UCSORGBACK
 10
0.0
 20
0.0
 30
0.0
  9
$PUCSBASE
  2

  9
$PUCSNAME
  2

  9
$PUCSORG
 10
0.0
 20
0.0
 30
0.0
  9
$PUCSXDIR
 10
1.0
 20
0.0
 30
0.0
  9
$PUCSYDIR
 10
0.0
 20
1.0
 30
0.0
  9
$PUCSORTHOREF
  2

  9
$PUCSORTHOVIEW
 70
     0
  9
$PUCSORGTOP
 10
0.0
 20
0.0
 30
0.0
  9
$PUCSORGBOTTOM
 10
0.0
 20
0.0
 30
0.0
  9
$PUCSORGLEFT
 10
0.0
 20
0.0
 30
0.0
  9
$PUCSORGRIGHT
 10
0.0
 20
0.0
 30
0.0
  9
$PUCSORGFRONT
 10
0.0
 20
0.0
 30
0.0
  9
$PUCSORGBACK
 10
0.0
 20
0.0
 30
0.0
  9
$USERI1
 70
     0
  9
$USERI2
 70
     0
  9
$USERI3
 70
     0
  9
$USERI4
 70
     0
  9
$USERI5
 70
     0
  9
$USERR1
 40
0.0
  9
$USERR2
 40
0.0
  9
$USERR3
 40
0.0
  9
$USERR4
 40
0.0
  9
$USERR5
 40
0.0
  9
$WORLDVIEW
 70
     1
  9
$SHADEDGE
 70
     3
  9
$SHADEDIF
 70
    70
  9
$TILEMODE
 70
     1
  9
$MAXACTVP
 70
    64
  9
$PINSBASE
 10
0.0
 20
0.0
 30
0.0
  9
$PLIMCHECK
 70
     0
  9
$PEXTMIN
 10
1.000000000000000E+20
 20
1.000000000000000E+20
 30
1.000000000000000E+20
  9
$PEXTMAX
 10
-1.000000000000000E+20
 20
-1.000000000000000E+20
 30
-1.000000000000000E+20
  9
$PLIMMIN
 10
0.0
 20
0.0
  9
$PLIMMAX
 10
12.0
 20
9.0
  9
$UNITMODE
 70
     0
  9
$VISRETAIN
 70
     1
  9
$PLINEGEN
 70
     0
  9
$PSLTSCALE
 70
     1
  9
$TREEDEPTH
 70
  3020
  9
$CMLSTYLE
  2
Standard
  9
$CMLJUST
 70
     0
  9
$CMLSCALE
 40
1.0
  9
$PROXYGRAPHICS
 70
     1
  9
$MEASUREMENT
 70
     1
  9
$CELWEIGHT
370
    -1
  9
$ENDCAPS
280
     0
  9
$JOINSTYLE
280
     0
  9
$LWDISPLAY
290
     0
  9
$INSUNITS
 70
     4
  9
$HYPERLINKBASE
  1

  9
$STYLESHEET
  1

  9
$XEDIT
290
     1
  9
$CEPSNTYPE
380
     0
  9
$PSTYLEMODE
290
     1
  9
$FINGERPRINTGUID
  2
{7e84ee04-c3c3-485c-b5b3-e31bd801346a}
  9
$VERSIONGUID
  2
{FAEB1C32-E019-11D5-929B-00C0DF256EC4}
  9
$EXTNAMES
290
     1
  9
$PSVPSCALE
 40
0.0
  9
$OLESTARTUP
290
     0
  9
$SORTENTS
280
   127
  9
$INDEXCTL
280
     0
  9
$HIDETEXT
280
     1
  9
$XCLIPFRAME
290
     0
  9
$HALOGAP
280
     0
  9
$OBSCOLOR
 70
   257
  9
$OBSLTYPE
280
     0
  9
$INTERSECTIONDISPLAY
280
     0
  9
$INTERSECTIONCOLOR
 70
   257
  9
$DIMASSOC
280
     2
  9
$PROJECTNAME
  1

  9
$CAMERADISPLAY
290
     0
  9
$LENSLENGTH
 40
50.0
  9
$CAMERAHEIGHT
 40
0.0
  9
$STEPSPERSEC
 40
2.0
  9
$STEPSIZE
 40
6.0
  9
$3DDWFPREC
 40
2.0
  9
$PSOLWIDTH
 40
0.25
  9
$PSOLHEIGHT
 40
4.0
  9
$LOFTANG1
 40
1.570796326794897
  9
$LOFTANG2
 40
1.570796326794897
  9
$LOFTMAG1
 40
0.0
  9
$LOFTMAG2
 40
0.0
  9
$LOFTPARAM
 70
     7
  9
$LOFTNORMALS
280
     1
  9
$LATITUDE
 40
37.795
  9
$LONGITUDE
 40
-122.394
  9
$NORTHDIRECTION
 40
0.0
  9
$TIMEZONE
 70
 -8000
  9
$LIGHTGLYPHDISPLAY
280
     1
  9
$TILEMODELIGHTSYNCH
280
     1
  9
$CMATERIAL
347
44
  9
$SOLIDHIST
280
     0
  9
$SHOWHIST
280
     1
  9
$DWFFRAME
280
     2
  9
$DGNFRAME
280
     2
  9
$REALWORLDSCALE
290
     1
  9
$INTERFERECOLOR
 62
   256
  9
$CSHADOW
280
     0
  9
$SHADOWPLANELOCATION
 40
0.0
  0
ENDSEC
  0
SECTION
  2
CLASSES
  0
CLASS
  1
ACDBDICTIONARYWDFLT
  2
AcDbDictionaryWithDefault
  3
ObjectDBX Classes
 90
        0
 91
        3
280
     0
281
     0
  0
CLASS
  1
VISUALSTYLE
  2
AcDbVisualStyle
  3
ObjectDBX Classes
 90
     4095
 91
        3
280
     0
281
     0
  0
CLASS
  1
MATERIAL
  2
AcDbMaterial
  3
ObjectDBX Classes
 90
     1153
 91
        3
280
     0
281
     0
  0
CLASS
  1
SCALE
  2
AcDbScale
  3
ObjectDBX Classes
 90
     1153
 91
        3
280
     0
281
     0
  0
CLASS
  1
TABLESTYLE
  2
AcDbTableStyle
  3
ObjectDBX Classes
 90
     4095
 91
        3
280
     0
281
     0
  0
CLASS
  1
MLEADERSTYLE
  2
AcDbMLeaderStyle
  3
ACDB_MLEADERSTYLE_CLASS
 90
     4095
 91
        3
280
     0
281
     0
  0
CLASS
  1
SUN
  2
AcDbSun
  3
SCENEOE
 90
     1153
 91
        3
280
     0
281
     0
  0
CLASS
  1
DICTIONARYVAR
  2
AcDbDictionaryVar
  3
ObjectDBX Classes
 90
        0
 91
        3
280
     0
281
     0
  0
CLASS
  1
CELLSTYLEMAP
  2
AcDbCellStyleMap
  3
ObjectDBX Classes
 90
     1152
 91
        3
280
     0
281
     0
  0
ENDSEC
  0
SECTION
  2
TABLES
  0
TABLE
  2
VPORT
  5
8
330
0
100
AcDbSymbolTable
 70
     1
  0
VPORT
  5
29
330
8
100
AcDbSymbolTableRecord
100
AcDbViewportTableRecord
  2
*Active
 70
     0
 10
0.0
 20
0.0
 11
1.0
 21
1.0
 12
10.42990654205607
 22
4.5
 13
0.0
 23
0.0
 14
0.5
 24
0.5
 15
0.5
 25
0.5
 16
0.0
 26
0.0
 36
1.0
 17
0.0
 27
0.0
 37
0.0
 40
9.0
 41
1.972972972850329
 42
50.0
 43
0.0
 44
0.0
 50
0.0
 51
0.0
 71
     0
 72
   100
 73
     1
 74
     3
 75
     0
 76
     0
 77
     0
 78
     0
281
     0
 65
     1
110
0.0
120
0.0
130
0.0
111
1.0
121
0.0
131
0.0
112
0.0
122
1.0
132
0.0
 79
     0
146
0.0
348
2F
 60
     3
 61
     5
292
     1
282
     1
141
0.0
142
0.0
 63
   250
361
6D
  0
ENDTAB
  0
TABLE
  2
LTYPE
  5
5
330
0
100
AcDbSymbolTable
 70
     1
  0
LTYPE
  5
14
330
5
100
AcDbSymbolTableRecord
100
AcDbLinetypeTableRecord
  2
ByBlock
 70
     0
  3

 72
    65
 73
     0
 40
0.0
  0
LTYPE
  5
15
330
5
100
AcDbSymbolTableRecord
100
AcDbLinetypeTableRecord
  2
ByLayer
 70
     0
  3

 72
    65
 73
     0
 40
0.0
  0
LTYPE
  5
16
330
5
100
AcDbSymbolTableRecord
100
AcDbLinetypeTableRecord
  2
Continuous
 70
     0
  3
Solid line
 72
    65
 73
     0
 40
0.0
  0
ENDTAB
  0
TABLE
  2
LAYER
  5
2
330
0
100
AcDbSymbolTable
 70
     3
  0
LAYER
  5
10
330
2
100
AcDbSymbolTableRecord
100
AcDbLayerTableRecord
  2
0
 70
     0
 62
     7
  6
Continuous
370
    -3
390
F
347
46
  0
LAYER
  5
6E
330
2
100
AcDbSymbolTableRecord
100
AcDbLayerTableRecord
  2
Capa 01
 70
     0
 62
     3
420
    65280
  6
Continuous
370
    -3
390
F
347
46
  0
LAYER
  5
343
330
2
100
AcDbSymbolTableRecord
100
AcDbLayerTableRecord
  2
Predeterminada
 70
     0
 62
     5
420
      255
  6
Continuous
370
    -3
390
F
347
46
  0
ENDTAB
  0
TABLE
  2
STYLE
  5
3
330
0
100
AcDbSymbolTable
 70
     1
  0
STYLE
  5
11
330
3
100
AcDbSymbolTableRecord
100
AcDbTextStyleTableRecord
  2
Standard
 70
     0
 40
0.0
 41
1.0
 50
0.0
 71
     0
 42
0.2
  3
txt
  4

  0
ENDTAB
  0
TABLE
  2
VIEW
  5
6
330
0
100
AcDbSymbolTable
 70
     0
  0
ENDTAB
  0
TABLE
  2
UCS
  5
7
330
0
100
AcDbSymbolTable
 70
     0
  0
ENDTAB
  0
TABLE
  2
APPID
  5
9
330
0
100
AcDbSymbolTable
 70
     2
  0
APPID
  5
12
330
9
100
AcDbSymbolTableRecord
100
AcDbRegAppTableRecord
  2
ACAD
 70
     0
  0
APPID
  5
437
330
9
100
AcDbSymbolTableRecord
100
AcDbRegAppTableRecord
  2
ACAD_MLEADERVER
 70
     0
  0
ENDTAB
  0
TABLE
  2
DIMSTYLE
  5
A
330
0
100
AcDbSymbolTable
 70
     1
100
AcDbDimStyleTable
  0
DIMSTYLE
105
27
330
A
100
AcDbSymbolTableRecord
100
AcDbDimStyleTableRecord
  2
STANDARD_ACAD
 70
     0
178
     0
340
11
  0
ENDTAB
  0
TABLE
  2
BLOCK_RECORD
  5
1
330
0
100
AcDbSymbolTable
 70
     1
  0
BLOCK_RECORD
  5
1F
330
1
100
AcDbSymbolTableRecord
100
AcDbBlockTableRecord
  2
*Model_Space
340
22
 70
     0
280
     1
281
     0
  0
BLOCK_RECORD
  5
1B
330
1
100
AcDbSymbolTableRecord
100
AcDbBlockTableRecord
  2
*Paper_Space
340
1E
 70
     0
280
     1
281
     0
  0
BLOCK_RECORD
  5
23
330
1
100
AcDbSymbolTableRecord
100
AcDbBlockTableRecord
  2
*Paper_Space0
340
26
 70
     0
280
     1
281
     0
  0
ENDTAB
  0
ENDSEC
  0
SECTION
  2
BLOCKS
  0
BLOCK
  5
20
330
1F
100
AcDbEntity
  8
0
100
AcDbBlockBegin
  2
*Model_Space
 70
     0
 10
0.0
 20
0.0
 30
0.0
  3
*Model_Space
  1

  0
ENDBLK
  5
21
330
1F
100
AcDbEntity
  8
0
100
AcDbBlockEnd
  0
BLOCK
  5
1C
330
1B
100
AcDbEntity
 67
     1
  8
0
100
AcDbBlockBegin
  2
*Paper_Space
 70
     0
 10
0.0
 20
0.0
 30
0.0
  3
*Paper_Space
  1

  0
ENDBLK
  5
1D
330
1B
100
AcDbEntity
 67
     1
  8
0
100
AcDbBlockEnd
  0
BLOCK
  5
24
330
23
100
AcDbEntity
  8
0
100
AcDbBlockBegin
  2
*Paper_Space0
 70
     0
 10
0.0
 20
0.0
 30
0.0
  3
*Paper_Space0
  1

  0
ENDBLK
  5
25
330
23
100
AcDbEntity
  8
0
100
AcDbBlockEnd
  0
ENDSEC
  0
SECTION
  2
ENTITIES
  0
LINE
  5
6F
330
1F
100
AcDbEntity
  8
Capa 01
100
AcDbLine
 10
464.2458612588543
 20
-283.9119972251408
 30
0.0
 11
464.1590943601664
 21
-283.9135033777815
 31
0.0
  0
LINE
  5
70
330
1F
100
AcDbEntity
  8
Capa 01
100
AcDbLine
 10
464.1590943601664
 20
-283.9135033777815
 30
0.0
 11
464.0724320088332
 21
-283.9180200209071
 31
0.0
  0
LINE
  5
71
330
1F
100
AcDbEntity
  8
Capa 01
100
AcDbLine
 10
464.0724320088332
 20
-283.9180200209071
 30
0.0
 11
463.9859786262385
 21
-283.9255417123144
 31
0.0
  0
LINE
  5
72
330
1F
100
AcDbEntity
  8
Capa 01
100
AcDbLine
 10
463.9859786262385
 20
-283.9255417123144
 30
0.0
 11
463.8998383819745
 21
-283.9360593889511
 31
0.0
  0
LINE
  5
73
330
1F
100
AcDbEntity
  8
Capa 01
100
AcDbLine
 10
463.8998383819745
 20
-283.9360593889511
 30
0.0
 11
463.8141150683262
 21
-283.949560377836
 31
0.0
  0
LINE
  5
74
330
1F
100
AcDbEntity
  8
Capa 01
100
AcDbLine
 10
463.8141150683262
 20
-283.949560377836
 30
0.0
 11
463.72891197521
 21
-283.966028411329
 31
0.0
  0
LINE
  5
75
330
1F
100
AcDbEntity
  8
Capa 01
100
AcDbLine
 10
463.72891197521
 20
-283.966028411329
 30
0.0
 11
463.6443317657167
 21
-283.9854436467326
 31
0.0
  0
LINE
  5
76
330
1F
100
AcDbEntity
  8
Capa 01
100
AcDbLine
 10
463.6443317657167
 20
-283.9854436467326
 30
0.0
 11
463.5604763524111
 21
-284.0077826902001
 31
0.0
  0
LINE
  5
77
330
1F
100
AcDbEntity
  8
Capa 01
100
AcDbLine
 10
463.5604763524111
 20
-284.0077826902001
 30
0.0
 11
463.4774467745348
 21
-284.0330186249243
 31
0.0
  0
LINE
  5
78
330
1F
100
AcDbEntity
  8
Capa 01
100
AcDbLine
 10
463.4774467745348
 20
-284.0330186249243
 30
0.0
 11
463.3953430762624
 21
-284.0611210435692
 31
0.0
  0
LINE
  5
79
330
1F
100
AcDbEntity
  8
Capa 01
100
AcDbLine
 10
463.3953430762624
 20
-284.0611210435692
 30
0.0
 11
463.3142641861554
 21
-284.0920560849092
 31
0.0
  0
LINE
  5
7A
330
1F
100
AcDbEntity
  8
Capa 01
100
AcDbLine
 10
463.3142641861554
 20
-284.0920560849092
 30
0.0
 11
463.2343077979612
 21
-284.1257864746291
 31
0.0
  0
LINE
  5
7B
330
1F
100
AcDbEntity
  8
Capa 01
100
AcDbLine
 10
463.2343077979612
 20
-284.1257864746291
 30
0.0
 11
463.1555702529002
 21
-284.1622715702363
 31
0.0
  0
LINE
  5
7C
330
1F
100
AcDbEntity
  8
Capa 01
100
AcDbLine
 10
463.1555702529002
 20
-284.1622715702363
 30
0.0
 11
463.0781464235814
 21
-284.2014674100323
 31
0.0
  0
LINE
  5
7D
330
1F
100
AcDbEntity
  8
Capa 01
100
AcDbLine
 10
463.0781464235814
 20
-284.2014674100323
 30
0.0
 11
463.0021295996888
 21
-284.2433267660831
 31
0.0
  0
LINE
  5
7E
330
1F
100
AcDbEntity
  8
Capa 01
100
AcDbLine
 10
463.0021295996888
 20
-284.2433267660831
 30
0.0
 11
462.9276113755745
 21
-284.2877992011249
 31
0.0
  0
LINE
  5
7F
330
1F
100
AcDbEntity
  8
Capa 01
100
AcDbLine
 10
462.9276113755745
 20
-284.2877992011249
 30
0.0
 11
462.8546815398944
 21
-284.3348311293374
 31
0.0
  0
LINE
  5
80
330
1F
100
AcDbEntity
  8
Capa 01
100
AcDbLine
 10
462.8546815398944
 20
-284.3348311293374
 30
0.0
 11
462.7834279674204
 21
-284.3843658809103
 31
0.0
  0
LINE
  5
81
330
1F
100
AcDbEntity
  8
Capa 01
100
AcDbLine
 10
462.7834279674204
 20
-284.3843658809103
 30
0.0
 11
462.7139365131574
 21
-284.4363437703261
 31
0.0
  0
LINE
  5
82
330
1F
100
AcDbEntity
  8
Capa 01
100
AcDbLine
 10
462.7139365131574
 20
-284.4363437703261
 30
0.0
 11
462.6462909088953
 21
-284.4907021682763
 31
0.0
  0
LINE
  5
83
330
1F
100
AcDbEntity
  8
Capa 01
100
AcDbLine
 10
462.6462909088953
 20
-284.4907021682763
 30
0.0
 11
462.5805726623184
 21
-284.5473755771254
 31
0.0
  0
LINE
  5
84
330
1F
100
AcDbEntity
  8
Capa 01
100
AcDbLine
 10
462.5805726623184
 20
-284.5473755771254
 30
0.0
 11
462.5168609587955
 21
-284.6062957098297
 31
0.0
  0
LINE
  5
85
330
1F
100
AcDbEntity
  8
Capa 01
100
AcDbLine
 10
462.5168609587955
 20
-284.6062957098297
 30
0.0
 11
462.4552325659668
 21
-284.6673915722187
 31
0.0
  0
LINE
  5
86
330
1F
100
AcDbEntity
  8
Capa 01
100
AcDbLine
 10
462.4552325659668
 20
-284.6673915722187
 30
0.0
 11
462.3957617412455
 21
-284.7305895485366
 31
0.0
  0
LINE
  5
87
330
1F
100
AcDbEntity
  8
Capa 01
100
AcDbLine
 10
462.3957617412455
 20
-284.7305895485366
 30
0.0
 11
462.3385201423435
 21
-284.7958134901443
 31
0.0
  0
LINE
  5
88
330
1F
100
AcDbEntity
  8
Capa 01
100
AcDbLine
 10
462.3385201423435
 20
-284.7958134901443
 30
0.0
 11
462.283576740929
 21
-284.8629848072723
 31
0.0
  0
LINE
  5
89
330
1F
100
AcDbEntity
  8
Capa 01
100
AcDbLine
 10
462.283576740929
 20
-284.8629848072723
 30
0.0
 11
462.2309977395214
 21
-284.9320225637153
 31
0.0
  0
LINE
  5
8A
330
1F
100
AcDbEntity
  8
Capa 01
100
AcDbLine
 10
462.2309977395214
 20
-284.9320225637153
 30
0.0
 11
462.1808464917221
 21
-285.0028435743539
 31
0.0
  0
LINE
  5
8B
330
1F
100
AcDbEntity
  8
Capa 01
100
AcDbLine
 10
462.1808464917221
 20
-285.0028435743539
 30
0.0
 11
462.1331834258785
 21
-285.0753625053864
 31
0.0
  0
LINE
  5
8C
330
1F
100
AcDbEntity
  8
Capa 01
100
AcDbLine
 10
462.1331834258785
 20
-285.0753625053864
 30
0.0
 11
462.0880659722727
 21
-285.1494919771492
 31
0.0
  0
LINE
  5
8D
330
1F
100
AcDbEntity
  8
Capa 01
100
AcDbLine
 10
462.0880659722727
 20
-285.1494919771492
 30
0.0
 11
462.0455484939221
 21
-285.2251426694025
 31
0.0
  0
LINE
  5
8E
330
1F
100
AcDbEntity
  8
Capa 01
100
AcDbLine
 10
462.0455484939221
 20
-285.2251426694025
 30
0.0
 11
462.0056822210767
 21
-285.3022234289546
 31
0.0
  0
LINE
  5
8F
330
1F
100
AcDbEntity
  8
Capa 01
100
AcDbLine
 10
462.0056822210767
 20
-285.3022234289546
 30
0.0
 11
461.9685151894899
 21
-285.3806413794935
 31
0.0
  0
LINE
  5
90
330
1F
100
AcDbEntity
  8
Capa 01
100
AcDbLine
 10
461.9685151894899
 20
-285.3806413794935
 30
0.0
 11
461.9340921825403
 21
-285.4603020334969
 31
0.0
  0
LINE
  5
91
330
1F
100
AcDbEntity
  8
Capa 01
100
AcDbLine
 10
461.9340921825403
 20
-285.4603020334969
 30
0.0
 11
461.9024546772698
 21
-285.5411094060811
 31
0.0
  0
LINE
  5
92
330
1F
100
AcDbEntity
  8
Capa 01
100
AcDbLine
 10
461.9024546772698
 20
-285.5411094060811
 30
0.0
 11
461.8736407944083
 21
-285.6229661306561
 31
0.0
  0
LINE
  5
93
330
1F
100
AcDbEntity
  8
Capa 01
100
AcDbLine
 10
461.8736407944083
 20
-285.6229661306561
 30
0.0
 11
461.8476852524404
 21
-285.7057735762444
 31
0.0
  0
LINE
  5
94
330
1F
100
AcDbEntity
  8
Capa 01
100
AcDbLine
 10
461.8476852524404
 20
-285.7057735762444
 30
0.0
 11
461.8246193257725
 21
-285.7894319663237
 31
0.0
  0
LINE
  5
95
330
1F
100
AcDbEntity
  8
Capa 01
100
AcDbLine
 10
461.8246193257725
 20
-285.7894319663237
 30
0.0
 11
461.8044708070496
 21
-285.8738404990498
 31
0.0
  0
LINE
  5
96
330
1F
100
AcDbEntity
  8
Capa 01
100
AcDbLine
 10
461.8044708070496
 20
-285.8738404990498
 30
0.0
 11
461.7872639736677
 21
-285.9588974687152
 31
0.0
  0
LINE
  5
97
330
1F
100
AcDbEntity
  8
Capa 01
100
AcDbLine
 10
461.7872639736677
 20
-285.9588974687152
 30
0.0
 11
461.7730195585206
 21
-286.0445003882964
 31
0.0
  0
LINE
  5
98
330
1F
100
AcDbEntity
  8
Capa 01
100
AcDbLine
 10
461.7730195585206
 20
-286.0445003882964
 30
0.0
 11
461.7617547250192
 21
-286.1305461129426
 31
0.0
  0
LINE
  5
99
330
1F
100
AcDbEntity
  8
Capa 01
100
AcDbLine
 10
461.7617547250192
 20
-286.1305461129426
 30
0.0
 11
461.7534830464104
 21
-286.2169309642575
 31
0.0
  0
LINE
  5
9A
330
1F
100
AcDbEntity
  8
Capa 01
100
AcDbLine
 10
461.7534830464104
 20
-286.2169309642575
 30
0.0
 11
461.7482144894228
 21
-286.3035508552235
 31
0.0
  0
LINE
  5
9B
330
1F
100
AcDbEntity
  8
Capa 01
100
AcDbLine
 10
461.7482144894228
 20
-286.3035508552235
 30
0.0
 11
461.745955402257
 21
-286.3903014156188
 31
0.0
  0
LINE
  5
9C
330
1F
100
AcDbEntity
  8
Capa 01
100
AcDbLine
 10
461.745955402257
 20
-286.3903014156188
 30
0.0
 11
461.7467085069374
 21
-286.4770781177746
 31
0.0
  0
LINE
  5
9D
330
1F
100
AcDbEntity
  8
Capa 01
100
AcDbLine
 10
461.7467085069374
 20
-286.4770781177746
 30
0.0
 11
461.7504728960312
 21
-286.5637764025238
 31
0.0
  0
LINE
  5
9E
330
1F
100
AcDbEntity
  8
Capa 01
100
AcDbLine
 10
461.7504728960312
 20
-286.5637764025238
 30
0.0
 11
461.7572440337429
 21
-286.6502918051859
 31
0.0
  0
LINE
  5
9F
330
1F
100
AcDbEntity
  8
Capa 01
100
AcDbLine
 10
461.7572440337429
 20
-286.6502918051859
 30
0.0
 11
461.7670137613789
 21
-286.7365200814393
 31
0.0
  0
LINE
  5
A0
330
1F
100
AcDbEntity
  8
Capa 01
100
AcDbLine
 10
461.7670137613789
 20
-286.7365200814393
 30
0.0
 11
461.7797703071784
 21
-286.822357332927
 31
0.0
  0
LINE
  5
A1
330
1F
100
AcDbEntity
  8
Capa 01
100
AcDbLine
 10
461.7797703071784
 20
-286.822357332927
 30
0.0
 11
461.7954983004972
 21
-286.9077001324467
 31
0.0
  0
LINE
  5
A2
330
1F
100
AcDbEntity
  8
Capa 01
100
AcDbLine
 10
461.7954983004972
 20
-286.9077001324467
 30
0.0
 11
461.8141787903284
 21
-286.9924456485722
 31
0.0
  0
LINE
  5
A3
330
1F
100
AcDbEntity
  8
Capa 01
100
AcDbLine
 10
461.8141787903284
 20
-286.9924456485722
 30
0.0
 11
461.8357892681368
 21
-287.076491769557
 31
0.0
  0
LINE
  5
A4
330
1F
100
AcDbEntity
  8
Capa 01
100
AcDbLine
 10
461.8357892681368
 20
-287.076491769557
 30
0.0
 11
461.8603036949797
 21
-287.1597372263716
 31
0.0
  0
LINE
  5
A5
330
1F
100
AcDbEntity
  8
Capa 01
100
AcDbLine
 10
461.8603036949797
 20
-287.1597372263716
 30
0.0
 11
461.8876925328822
 21
-287.2420817147242
 31
0.0
  0
LINE
  5
A6
330
1F
100
AcDbEntity
  8
Capa 01
100
AcDbLine
 10
461.8876925328822
 20
-287.2420817147242
 30
0.0
 11
461.9179227804278
 21
-287.32342601592
 31
0.0
  0
LINE
  5
A7
330
1F
100
AcDbEntity
  8
Capa 01
100
AcDbLine
 10
461.9179227804278
 20
-287.32342601592
 30
0.0
 11
461.9509580125228
 21
-287.4036721164118
 31
0.0
  0
LINE
  5
A8
330
1F
100
AcDbEntity
  8
Capa 01
100
AcDbLine
 10
461.9509580125228
 20
-287.4036721164118
 30
0.0
 11
461.9867584242856
 21
-287.4827233258985
 31
0.0
  0
LINE
  5
A9
330
1F
100
AcDbEntity
  8
Capa 01
100
AcDbLine
 10
461.9867584242856
 20
-287.4827233258985
 30
0.0
 11
462.0252808790084
 21
-287.5604843938299
 31
0.0
  0
LINE
  5
AA
330
1F
100
AcDbEntity
  8
Capa 01
100
AcDbLine
 10
462.0252808790084
 20
-287.5604843938299
 30
0.0
 11
462.0664789601337
 21
-287.6368616241757
 31
0.0
  0
LINE
  5
AB
330
1F
100
AcDbEntity
  8
Capa 01
100
AcDbLine
 10
462.0664789601337
 20
-287.6368616241757
 30
0.0
 11
462.1103030271825
 21
-287.7117629883222
 31
0.0
  0
LINE
  5
AC
330
1F
100
AcDbEntity
  8
Capa 01
100
AcDbLine
 10
462.1103030271825
 20
-287.7117629883222
 30
0.0
 11
462.1567002755673
 21
-287.7850982359595
 31
0.0
  0
LINE
  5
AD
330
1F
100
AcDbEntity
  8
Capa 01
100
AcDbLine
 10
462.1567002755673
 20
-287.7850982359595
 30
0.0
 11
462.2056148002177
 21
-287.856779003826
 31
0.0
  0
LINE
  5
AE
330
1F
100
AcDbEntity
  8
Capa 01
100
AcDbLine
 10
462.2056148002177
 20
-287.856779003826
 30
0.0
 11
462.2569876629412
 21
-287.9267189221795
 31
0.0
  0
LINE
  5
AF
330
1F
100
AcDbEntity
  8
Capa 01
100
AcDbLine
 10
462.2569876629412
 20
-287.9267189221795
 30
0.0
 11
462.3107569634396
 21
-287.9948337188658
 31
0.0
  0
LINE
  5
B0
330
1F
100
AcDbEntity
  8
Capa 01
100
AcDbLine
 10
462.3107569634396
 20
-287.9948337188658
 30
0.0
 11
462.3668579138937
 21
-288.0610413208602
 31
0.0
  0
LINE
  5
B1
330
1F
100
AcDbEntity
  8
Capa 01
100
AcDbLine
 10
462.3668579138937
 20
-288.0610413208602
 30
0.0
 11
462.4252229170278
 21
-288.125261953159
 31
0.0
  0
LINE
  5
B2
330
1F
100
AcDbEntity
  8
Capa 01
100
AcDbLine
 10
462.4252229170278
 20
-288.125261953159
 30
0.0
 11
462.485781647559
 21
-288.1874182349023
 31
0.0
  0
LINE
  5
B3
330
1F
100
AcDbEntity
  8
Capa 01
100
AcDbLine
 10
462.485781647559
 20
-288.1874182349023
 30
0.0
 11
462.5484611369337
 21
-288.2474352726118
 31
0.0
  0
LINE
  5
B4
330
1F
100
AcDbEntity
  8
Capa 01
100
AcDbLine
 10
462.5484611369337
 20
-288.2474352726118
 30
0.0
 11
462.6131858612493
 21
-288.3052407504316
 31
0.0
  0
LINE
  5
B5
330
1F
100
AcDbEntity
  8
Capa 01
100
AcDbLine
 10
462.6131858612493
 20
-288.3052407504316
 30
0.0
 11
462.6798778322542
 21
-288.3607650172632
 31
0.0
  0
LINE
  5
B6
330
1F
100
AcDbEntity
  8
Capa 01
100
AcDbLine
 10
462.6798778322542
 20
-288.3607650172632
 30
0.0
 11
462.7484566913177
 21
-288.4139411706898
 31
0.0
  0
LINE
  5
B7
330
1F
100
AcDbEntity
  8
Capa 01
100
AcDbLine
 10
462.7484566913177
 20
-288.4139411706898
 30
0.0
 11
462.8188398062561
 21
-288.4647051375883
 31
0.0
  0
LINE
  5
B8
330
1F
100
AcDbEntity
  8
Capa 01
100
AcDbLine
 10
462.8188398062561
 20
-288.4647051375883
 30
0.0
 11
462.8909423708979
 21
-288.5129957513324
 31
0.0
  0
LINE
  5
B9
330
1F
100
AcDbEntity
  8
Capa 01
100
AcDbLine
 10
462.8909423708979
 20
-288.5129957513324
 30
0.0
 11
462.9646775072686
 21
-288.5587548254937
 31
0.0
  0
LINE
  5
BA
330
1F
100
AcDbEntity
  8
Capa 01
100
AcDbLine
 10
462.9646775072686
 20
-288.5587548254937
 30
0.0
 11
463.0399563702719
 21
-288.6019272239519
 31
0.0
  0
LINE
  5
BB
330
1F
100
AcDbEntity
  8
Capa 01
100
AcDbLine
 10
463.0399563702719
 20
-288.6019272239519
 30
0.0
 11
463.1166882547411
 21
-288.6424609273296
 31
0.0
  0
LINE
  5
BC
330
1F
100
AcDbEntity
  8
Capa 01
100
AcDbLine
 10
463.1166882547411
 20
-288.6424609273296
 30
0.0
 11
463.1947807047318
 21
-288.6803070956712
 31
0.0
  0
LINE
  5
BD
330
1F
100
AcDbEntity
  8
Capa 01
100
AcDbLine
 10
463.1947807047318
 20
-288.6803070956712
 30
0.0
 11
463.2741396249244
 21
-288.7154201272916
 31
0.0
  0
LINE
  5
BE
330
1F
100
AcDbEntity
  8
Capa 01
100
AcDbLine
 10
463.2741396249244
 20
-288.7154201272916
 30
0.0
 11
463.354669394001
 21
-288.7477577137225
 31
0.0
  0
LINE
  5
BF
330
1F
100
AcDbEntity
  8
Capa 01
100
AcDbLine
 10
463.354669394001
 20
-288.7477577137225
 30
0.0
 11
463.4362729798621
 21
-288.777280890691
 31
0.0
  0
LINE
  5
C0
330
1F
100
AcDbEntity
  8
Capa 01
100
AcDbLine
 10
463.4362729798621
 20
-288.777280890691
 30
0.0
 11
463.5188520565426
 21
-288.8039540850683
 31
0.0
  0
LINE
  5
C1
330
1F
100
AcDbEntity
  8
Capa 01
100
AcDbLine
 10
463.5188520565426
 20
-288.8039540850683
 30
0.0
 11
463.6023071226871
 21
-288.8277451577327
 31
0.0
  0
LINE
  5
C2
330
1F
100
AcDbEntity
  8
Capa 01
100
AcDbLine
 10
463.6023071226871
 20
-288.8277451577327
 30
0.0
 11
463.6865376214409
 21
-288.8486254422947
 31
0.0
  0
LINE
  5
C3
330
1F
100
AcDbEntity
  8
Capa 01
100
AcDbLine
 10
463.6865376214409
 20
-288.8486254422947
 30
0.0
 11
463.7714420616135
 21
-288.8665697796377
 31
0.0
  0
LINE
  5
C4
330
1F
100
AcDbEntity
  8
Capa 01
100
AcDbLine
 10
463.7714420616135
 20
-288.8665697796377
 30
0.0
 11
463.8569181399675
 21
-288.8815565482328
 31
0.0
  0
LINE
  5
C5
330
1F
100
AcDbEntity
  8
Capa 01
100
AcDbLine
 10
463.8569181399675
 20
-288.8815565482328
 30
0.0
 11
463.942862864486
 21
-288.8935676901912
 31
0.0
  0
LINE
  5
C6
330
1F
100
AcDbEntity
  8
Capa 01
100
AcDbLine
 10
463.942862864486
 20
-288.8935676901912
 30
0.0
 11
464.0291726784699
 21
-288.9025887330222
 31
0.0
  0
LINE
  5
C7
330
1F
100
AcDbEntity
  8
Capa 01
100
AcDbLine
 10
464.0291726784699
 20
-288.9025887330222
 30
0.0
 11
464.115743585316
 21
-288.908608807072
 31
0.0
  0
LINE
  5
C8
330
1F
100
AcDbEntity
  8
Capa 01
100
AcDbLine
 10
464.115743585316
 20
-288.908608807072
 30
0.0
 11
464.202471273824
 21
-288.9116206586202
 31
0.0
  0
LINE
  5
C9
330
1F
100
AcDbEntity
  8
Capa 01
100
AcDbLine
 10
464.202471273824
 20
-288.9116206586202
 30
0.0
 11
464.2892512438846
 21
-288.9116206586202
 31
0.0
  0
LINE
  5
CA
330
1F
100
AcDbEntity
  8
Capa 01
100
AcDbLine
 10
464.2892512438846
 20
-288.9116206586202
 30
0.0
 11
464.3759789323926
 21
-288.908608807072
 31
0.0
  0
LINE
  5
CB
330
1F
100
AcDbEntity
  8
Capa 01
100
AcDbLine
 10
464.3759789323926
 20
-288.908608807072
 30
0.0
 11
464.4625498392386
 21
-288.9025887330222
 31
0.0
  0
LINE
  5
CC
330
1F
100
AcDbEntity
  8
Capa 01
100
AcDbLine
 10
464.4625498392386
 20
-288.9025887330222
 30
0.0
 11
464.5488596532226
 21
-288.8935676901912
 31
0.0
  0
LINE
  5
CD
330
1F
100
AcDbEntity
  8
Capa 01
100
AcDbLine
 10
464.5488596532226
 20
-288.8935676901912
 30
0.0
 11
464.634804377741
 21
-288.8815565482328
 31
0.0
  0
LINE
  5
CE
330
1F
100
AcDbEntity
  8
Capa 01
100
AcDbLine
 10
464.634804377741
 20
-288.8815565482328
 30
0.0
 11
464.7202804560951
 21
-288.8665697796377
 31
0.0
  0
LINE
  5
CF
330
1F
100
AcDbEntity
  8
Capa 01
100
AcDbLine
 10
464.7202804560951
 20
-288.8665697796377
 30
0.0
 11
464.8051848962677
 21
-288.8486254422947
 31
0.0
  0
LINE
  5
D0
330
1F
100
AcDbEntity
  8
Capa 01
100
AcDbLine
 10
464.8051848962677
 20
-288.8486254422947
 30
0.0
 11
464.8894153950214
 21
-288.8277451577327
 31
0.0
  0
LINE
  5
D1
330
1F
100
AcDbEntity
  8
Capa 01
100
AcDbLine
 10
464.8894153950214
 20
-288.8277451577327
 30
0.0
 11
464.9728704611659
 21
-288.8039540850683
 31
0.0
  0
LINE
  5
D2
330
1F
100
AcDbEntity
  8
Capa 01
100
AcDbLine
 10
464.9728704611659
 20
-288.8039540850683
 30
0.0
 11
465.0554495378465
 21
-288.777280890691
 31
0.0
  0
LINE
  5
D3
330
1F
100
AcDbEntity
  8
Capa 01
100
AcDbLine
 10
465.0554495378465
 20
-288.777280890691
 30
0.0
 11
465.1370531237076
 21
-288.7477577137225
 31
0.0
  0
LINE
  5
D4
330
1F
100
AcDbEntity
  8
Capa 01
100
AcDbLine
 10
465.1370531237076
 20
-288.7477577137225
 30
0.0
 11
465.2175828927842
 21
-288.7154201272916
 31
0.0
  0
LINE
  5
D5
330
1F
100
AcDbEntity
  8
Capa 01
100
AcDbLine
 10
465.2175828927842
 20
-288.7154201272916
 30
0.0
 11
465.2969418129767
 21
-288.6803070956712
 31
0.0
  0
LINE
  5
D6
330
1F
100
AcDbEntity
  8
Capa 01
100
AcDbLine
 10
465.2969418129767
 20
-288.6803070956712
 30
0.0
 11
465.3750342629675
 21
-288.6424609273296
 31
0.0
  0
LINE
  5
D7
330
1F
100
AcDbEntity
  8
Capa 01
100
AcDbLine
 10
465.3750342629675
 20
-288.6424609273296
 30
0.0
 11
465.4517661474367
 21
-288.6019272239519
 31
0.0
  0
LINE
  5
D8
330
1F
100
AcDbEntity
  8
Capa 01
100
AcDbLine
 10
465.4517661474367
 20
-288.6019272239519
 30
0.0
 11
465.52704501044
 21
-288.5587548254937
 31
0.0
  0
LINE
  5
D9
330
1F
100
AcDbEntity
  8
Capa 01
100
AcDbLine
 10
465.52704501044
 20
-288.5587548254937
 30
0.0
 11
465.6007801468107
 21
-288.5129957513324
 31
0.0
  0
LINE
  5
DA
330
1F
100
AcDbEntity
  8
Capa 01
100
AcDbLine
 10
465.6007801468107
 20
-288.5129957513324
 30
0.0
 11
465.6728827114525
 21
-288.4647051375883
 31
0.0
  0
LINE
  5
DB
330
1F
100
AcDbEntity
  8
Capa 01
100
AcDbLine
 10
465.6728827114525
 20
-288.4647051375883
 30
0.0
 11
465.7432658263909
 21
-288.4139411706898
 31
0.0
  0
LINE
  5
DC
330
1F
100
AcDbEntity
  8
Capa 01
100
AcDbLine
 10
465.7432658263909
 20
-288.4139411706898
 30
0.0
 11
465.8118446854544
 21
-288.3607650172632
 31
0.0
  0
LINE
  5
DD
330
1F
100
AcDbEntity
  8
Capa 01
100
AcDbLine
 10
465.8118446854544
 20
-288.3607650172632
 30
0.0
 11
465.8785366564592
 21
-288.3052407504316
 31
0.0
  0
LINE
  5
DE
330
1F
100
AcDbEntity
  8
Capa 01
100
AcDbLine
 10
465.8785366564592
 20
-288.3052407504316
 30
0.0
 11
465.9432613807749
 21
-288.2474352726118
 31
0.0
  0
LINE
  5
DF
330
1F
100
AcDbEntity
  8
Capa 01
100
AcDbLine
 10
465.9432613807749
 20
-288.2474352726118
 30
0.0
 11
466.0059408701496
 21
-288.1874182349023
 31
0.0
  0
LINE
  5
E0
330
1F
100
AcDbEntity
  8
Capa 01
100
AcDbLine
 10
466.0059408701496
 20
-288.1874182349023
 30
0.0
 11
466.0664996006808
 21
-288.125261953159
 31
0.0
  0
LINE
  5
E1
330
1F
100
AcDbEntity
  8
Capa 01
100
AcDbLine
 10
466.0664996006808
 20
-288.125261953159
 30
0.0
 11
466.1248646038149
 21
-288.0610413208602
 31
0.0
  0
LINE
  5
E2
330
1F
100
AcDbEntity
  8
Capa 01
100
AcDbLine
 10
466.1248646038149
 20
-288.0610413208602
 30
0.0
 11
466.180965554269
 21
-287.9948337188658
 31
0.0
  0
LINE
  5
E3
330
1F
100
AcDbEntity
  8
Capa 01
100
AcDbLine
 10
466.180965554269
 20
-287.9948337188658
 30
0.0
 11
466.2347348547674
 21
-287.9267189221795
 31
0.0
  0
LINE
  5
E4
330
1F
100
AcDbEntity
  8
Capa 01
100
AcDbLine
 10
466.2347348547674
 20
-287.9267189221795
 30
0.0
 11
466.2861077174909
 21
-287.856779003826
 31
0.0
  0
LINE
  5
E5
330
1F
100
AcDbEntity
  8
Capa 01
100
AcDbLine
 10
466.2861077174909
 20
-287.856779003826
 30
0.0
 11
466.3350222421413
 21
-287.7850982359595
 31
0.0
  0
LINE
  5
E6
330
1F
100
AcDbEntity
  8
Capa 01
100
AcDbLine
 10
466.3350222421413
 20
-287.7850982359595
 30
0.0
 11
466.3814194905261
 21
-287.7117629883222
 31
0.0
  0
LINE
  5
E7
330
1F
100
AcDbEntity
  8
Capa 01
100
AcDbLine
 10
466.3814194905261
 20
-287.7117629883222
 30
0.0
 11
466.4252435575749
 21
-287.6368616241757
 31
0.0
  0
LINE
  5
E8
330
1F
100
AcDbEntity
  8
Capa 01
100
AcDbLine
 10
466.4252435575749
 20
-287.6368616241757
 30
0.0
 11
466.4664416387002
 21
-287.5604843938299
 31
0.0
  0
LINE
  5
E9
330
1F
100
AcDbEntity
  8
Capa 01
100
AcDbLine
 10
466.4664416387002
 20
-287.5604843938299
 30
0.0
 11
466.504964093423
 21
-287.4827233258985
 31
0.0
  0
LINE
  5
EA
330
1F
100
AcDbEntity
  8
Capa 01
100
AcDbLine
 10
466.504964093423
 20
-287.4827233258985
 30
0.0
 11
466.5407645051858
 21
-287.4036721164118
 31
0.0
  0
LINE
  5
EB
330
1F
100
AcDbEntity
  8
Capa 01
100
AcDbLine
 10
466.5407645051858
 20
-287.4036721164118
 30
0.0
 11
466.5737997372808
 21
-287.32342601592
 31
0.0
  0
LINE
  5
EC
330
1F
100
AcDbEntity
  8
Capa 01
100
AcDbLine
 10
466.5737997372808
 20
-287.32342601592
 30
0.0
 11
466.6040299848264
 21
-287.2420817147242
 31
0.0
  0
LINE
  5
ED
330
1F
100
AcDbEntity
  8
Capa 01
100
AcDbLine
 10
466.6040299848264
 20
-287.2420817147242
 30
0.0
 11
466.6314188227289
 21
-287.1597372263716
 31
0.0
  0
LINE
  5
EE
330
1F
100
AcDbEntity
  8
Capa 01
100
AcDbLine
 10
466.6314188227289
 20
-287.1597372263716
 30
0.0
 11
466.6559332495718
 21
-287.076491769557
 31
0.0
  0
LINE
  5
EF
330
1F
100
AcDbEntity
  8
Capa 01
100
AcDbLine
 10
466.6559332495718
 20
-287.076491769557
 30
0.0
 11
466.6775437273802
 21
-286.9924456485722
 31
0.0
  0
LINE
  5
F0
330
1F
100
AcDbEntity
  8
Capa 01
100
AcDbLine
 10
466.6775437273802
 20
-286.9924456485722
 30
0.0
 11
466.6962242172114
 21
-286.9077001324467
 31
0.0
  0
LINE
  5
F1
330
1F
100
AcDbEntity
  8
Capa 01
100
AcDbLine
 10
466.6962242172114
 20
-286.9077001324467
 30
0.0
 11
466.7119522105302
 21
-286.822357332927
 31
0.0
  0
LINE
  5
F2
330
1F
100
AcDbEntity
  8
Capa 01
100
AcDbLine
 10
466.7119522105302
 20
-286.822357332927
 30
0.0
 11
466.7247087563297
 21
-286.7365200814393
 31
0.0
  0
LINE
  5
F3
330
1F
100
AcDbEntity
  8
Capa 01
100
AcDbLine
 10
466.7247087563297
 20
-286.7365200814393
 30
0.0
 11
466.7344784839657
 21
-286.6502918051859
 31
0.0
  0
LINE
  5
F4
330
1F
100
AcDbEntity
  8
Capa 01
100
AcDbLine
 10
466.7344784839657
 20
-286.6502918051859
 30
0.0
 11
466.7412496216774
 21
-286.5637764025238
 31
0.0
  0
LINE
  5
F5
330
1F
100
AcDbEntity
  8
Capa 01
100
AcDbLine
 10
466.7412496216774
 20
-286.5637764025238
 30
0.0
 11
466.7450140107712
 21
-286.4770781177746
 31
0.0
  0
LINE
  5
F6
330
1F
100
AcDbEntity
  8
Capa 01
100
AcDbLine
 10
466.7450140107712
 20
-286.4770781177746
 30
0.0
 11
466.7457671154515
 21
-286.3903014156188
 31
0.0
  0
LINE
  5
F7
330
1F
100
AcDbEntity
  8
Capa 01
100
AcDbLine
 10
466.7457671154515
 20
-286.3903014156188
 30
0.0
 11
466.7435080282858
 21
-286.3035508552235
 31
0.0
  0
LINE
  5
F8
330
1F
100
AcDbEntity
  8
Capa 01
100
AcDbLine
 10
466.7435080282858
 20
-286.3035508552235
 30
0.0
 11
466.7382394712982
 21
-286.2169309642575
 31
0.0
  0
LINE
  5
F9
330
1F
100
AcDbEntity
  8
Capa 01
100
AcDbLine
 10
466.7382394712982
 20
-286.2169309642575
 30
0.0
 11
466.7299677926894
 21
-286.1305461129426
 31
0.0
  0
LINE
  5
FA
330
1F
100
AcDbEntity
  8
Capa 01
100
AcDbLine
 10
466.7299677926894
 20
-286.1305461129426
 30
0.0
 11
466.718702959188
 21
-286.0445003882964
 31
0.0
  0
LINE
  5
FB
330
1F
100
AcDbEntity
  8
Capa 01
100
AcDbLine
 10
466.718702959188
 20
-286.0445003882964
 30
0.0
 11
466.7044585440409
 21
-285.9588974687152
 31
0.0
  0
LINE
  5
FC
330
1F
100
AcDbEntity
  8
Capa 01
100
AcDbLine
 10
466.7044585440409
 20
-285.9588974687152
 30
0.0
 11
466.687251710659
 21
-285.8738404990498
 31
0.0
  0
LINE
  5
FD
330
1F
100
AcDbEntity
  8
Capa 01
100
AcDbLine
 10
466.687251710659
 20
-285.8738404990498
 30
0.0
 11
466.6671031919361
 21
-285.7894319663237
 31
0.0
  0
LINE
  5
FE
330
1F
100
AcDbEntity
  8
Capa 01
100
AcDbLine
 10
466.6671031919361
 20
-285.7894319663237
 30
0.0
 11
466.6440372652682
 21
-285.7057735762444
 31
0.0
  0
LINE
  5
FF
330
1F
100
AcDbEntity
  8
Capa 01
100
AcDbLine
 10
466.6440372652682
 20
-285.7057735762444
 30
0.0
 11
466.6180817233003
 21
-285.6229661306561
 31
0.0
  0
LINE
  5
100
330
1F
100
AcDbEntity
  8
Capa 01
100
AcDbLine
 10
466.6180817233003
 20
-285.6229661306561
 30
0.0
 11
466.5892678404388
 21
-285.5411094060811
 31
0.0
  0
LINE
  5
101
330
1F
100
AcDbEntity
  8
Capa 01
100
AcDbLine
 10
466.5892678404388
 20
-285.5411094060811
 30
0.0
 11
466.5576303351683
 21
-285.4603020334969
 31
0.0
  0
LINE
  5
102
330
1F
100
AcDbEntity
  8
Capa 01
100
AcDbLine
 10
466.5576303351683
 20
-285.4603020334969
 30
0.0
 11
466.5232073282186
 21
-285.3806413794935
 31
0.0
  0
LINE
  5
103
330
1F
100
AcDbEntity
  8
Capa 01
100
AcDbLine
 10
466.5232073282186
 20
-285.3806413794935
 30
0.0
 11
466.4860402966319
 21
-285.3022234289546
 31
0.0
  0
LINE
  5
104
330
1F
100
AcDbEntity
  8
Capa 01
100
AcDbLine
 10
466.4860402966319
 20
-285.3022234289546
 30
0.0
 11
466.4461740237865
 21
-285.2251426694025
 31
0.0
  0
LINE
  5
105
330
1F
100
AcDbEntity
  8
Capa 01
100
AcDbLine
 10
466.4461740237865
 20
-285.2251426694025
 30
0.0
 11
466.4036565454359
 21
-285.1494919771492
 31
0.0
  0
LINE
  5
106
330
1F
100
AcDbEntity
  8
Capa 01
100
AcDbLine
 10
466.4036565454359
 20
-285.1494919771492
 30
0.0
 11
466.35853909183
 21
-285.0753625053864
 31
0.0
  0
LINE
  5
107
330
1F
100
AcDbEntity
  8
Capa 01
100
AcDbLine
 10
466.35853909183
 20
-285.0753625053864
 30
0.0
 11
466.3108760259865
 21
-285.0028435743539
 31
0.0
  0
LINE
  5
108
330
1F
100
AcDbEntity
  8
Capa 01
100
AcDbLine
 10
466.3108760259865
 20
-285.0028435743539
 30
0.0
 11
466.2607247781872
 21
-284.9320225637153
 31
0.0
  0
LINE
  5
109
330
1F
100
AcDbEntity
  8
Capa 01
100
AcDbLine
 10
466.2607247781872
 20
-284.9320225637153
 30
0.0
 11
466.2081457767796
 21
-284.8629848072723
 31
0.0
  0
LINE
  5
10A
330
1F
100
AcDbEntity
  8
Capa 01
100
AcDbLine
 10
466.2081457767796
 20
-284.8629848072723
 30
0.0
 11
466.1532023753651
 21
-284.7958134901443
 31
0.0
  0
LINE
  5
10B
330
1F
100
AcDbEntity
  8
Capa 01
100
AcDbLine
 10
466.1532023753651
 20
-284.7958134901443
 30
0.0
 11
466.0959607764631
 21
-284.7305895485366
 31
0.0
  0
LINE
  5
10C
330
1F
100
AcDbEntity
  8
Capa 01
100
AcDbLine
 10
466.0959607764631
 20
-284.7305895485366
 30
0.0
 11
466.0364899517418
 21
-284.6673915722187
 31
0.0
  0
LINE
  5
10D
330
1F
100
AcDbEntity
  8
Capa 01
100
AcDbLine
 10
466.0364899517418
 20
-284.6673915722187
 30
0.0
 11
465.9748615589131
 21
-284.6062957098297
 31
0.0
  0
LINE
  5
10E
330
1F
100
AcDbEntity
  8
Capa 01
100
AcDbLine
 10
465.9748615589131
 20
-284.6062957098297
 30
0.0
 11
465.9111498553901
 21
-284.5473755771254
 31
0.0
  0
LINE
  5
10F
330
1F
100
AcDbEntity
  8
Capa 01
100
AcDbLine
 10
465.9111498553901
 20
-284.5473755771254
 30
0.0
 11
465.8454316088133
 21
-284.4907021682763
 31
0.0
  0
LINE
  5
110
330
1F
100
AcDbEntity
  8
Capa 01
100
AcDbLine
 10
465.8454316088133
 20
-284.4907021682763
 30
0.0
 11
465.7777860045512
 21
-284.4363437703261
 31
0.0
  0
LINE
  5
111
330
1F
100
AcDbEntity
  8
Capa 01
100
AcDbLine
 10
465.7777860045512
 20
-284.4363437703261
 30
0.0
 11
465.7082945502882
 21
-284.3843658809103
 31
0.0
  0
LINE
  5
112
330
1F
100
AcDbEntity
  8
Capa 01
100
AcDbLine
 10
465.7082945502882
 20
-284.3843658809103
 30
0.0
 11
465.6370409778141
 21
-284.3348311293375
 31
0.0
  0
LINE
  5
113
330
1F
100
AcDbEntity
  8
Capa 01
100
AcDbLine
 10
465.6370409778141
 20
-284.3348311293375
 30
0.0
 11
465.5641111421341
 21
-284.2877992011249
 31
0.0
  0
LINE
  5
114
330
1F
100
AcDbEntity
  8
Capa 01
100
AcDbLine
 10
465.5641111421341
 20
-284.2877992011249
 30
0.0
 11
465.4895929180198
 21
-284.2433267660831
 31
0.0
  0
LINE
  5
115
330
1F
100
AcDbEntity
  8
Capa 01
100
AcDbLine
 10
465.4895929180198
 20
-284.2433267660831
 30
0.0
 11
465.4135760941272
 21
-284.2014674100323
 31
0.0
  0
LINE
  5
116
330
1F
100
AcDbEntity
  8
Capa 01
100
AcDbLine
 10
465.4135760941272
 20
-284.2014674100323
 30
0.0
 11
465.3361522648084
 21
-284.1622715702363
 31
0.0
  0
LINE
  5
117
330
1F
100
AcDbEntity
  8
Capa 01
100
AcDbLine
 10
465.3361522648084
 20
-284.1622715702363
 30
0.0
 11
465.2574147197474
 21
-284.1257864746291
 31
0.0
  0
LINE
  5
118
330
1F
100
AcDbEntity
  8
Capa 01
100
AcDbLine
 10
465.2574147197474
 20
-284.1257864746291
 30
0.0
 11
465.1774583315532
 21
-284.0920560849092
 31
0.0
  0
LINE
  5
119
330
1F
100
AcDbEntity
  8
Capa 01
100
AcDbLine
 10
465.1774583315532
 20
-284.0920560849092
 30
0.0
 11
465.0963794414462
 21
-284.0611210435692
 31
0.0
  0
LINE
  5
11A
330
1F
100
AcDbEntity
  8
Capa 01
100
AcDbLine
 10
465.0963794414462
 20
-284.0611210435692
 30
0.0
 11
465.0142757431738
 21
-284.0330186249243
 31
0.0
  0
LINE
  5
11B
330
1F
100
AcDbEntity
  8
Capa 01
100
AcDbLine
 10
465.0142757431738
 20
-284.0330186249243
 30
0.0
 11
464.9312461652975
 21
-284.0077826902001
 31
0.0
  0
LINE
  5
11C
330
1F
100
AcDbEntity
  8
Capa 01
100
AcDbLine
 10
464.9312461652975
 20
-284.0077826902001
 30
0.0
 11
464.8473907519919
 21
-283.9854436467326
 31
0.0
  0
LINE
  5
11D
330
1F
100
AcDbEntity
  8
Capa 01
100
AcDbLine
 10
464.8473907519919
 20
-283.9854436467326
 30
0.0
 11
464.7628105424986
 21
-283.966028411329
 31
0.0
  0
LINE
  5
11E
330
1F
100
AcDbEntity
  8
Capa 01
100
AcDbLine
 10
464.7628105424986
 20
-283.966028411329
 30
0.0
 11
464.6776074493824
 21
-283.949560377836
 31
0.0
  0
LINE
  5
11F
330
1F
100
AcDbEntity
  8
Capa 01
100
AcDbLine
 10
464.6776074493824
 20
-283.949560377836
 30
0.0
 11
464.5918841357341
 21
-283.9360593889511
 31
0.0
  0
LINE
  5
120
330
1F
100
AcDbEntity
  8
Capa 01
100
AcDbLine
 10
464.5918841357341
 20
-283.9360593889511
 30
0.0
 11
464.5057438914701
 21
-283.9255417123144
 31
0.0
  0
LINE
  5
121
330
1F
100
AcDbEntity
  8
Capa 01
100
AcDbLine
 10
464.5057438914701
 20
-283.9255417123144
 30
0.0
 11
464.4192905088753
 21
-283.9180200209071
 31
0.0
  0
LINE
  5
122
330
1F
100
AcDbEntity
  8
Capa 01
100
AcDbLine
 10
464.4192905088753
 20
-283.9180200209071
 30
0.0
 11
464.3326281575423
 21
-283.9135033777815
 31
0.0
  0
LINE
  5
123
330
1F
100
AcDbEntity
  8
Capa 01
100
AcDbLine
 10
464.3326281575423
 20
-283.9135033777815
 30
0.0
 11
464.2458612588543
 21
-283.9119972251408
 31
0.0
  0
LINE
  5
124
330
1F
100
AcDbEntity
  8
Capa 01
100
AcDbLine
 10
464.2458612588542
 20
-187.4119972251408
 30
0.0
 11
464.1590943601663
 21
-187.4135033777815
 31
0.0
  0
LINE
  5
125
330
1F
100
AcDbEntity
  8
Capa 01
100
AcDbLine
 10
464.1590943601663
 20
-187.4135033777815
 30
0.0
 11
464.0724320088332
 21
-187.4180200209071
 31
0.0
  0
LINE
  5
126
330
1F
100
AcDbEntity
  8
Capa 01
100
AcDbLine
 10
464.0724320088332
 20
-187.4180200209071
 30
0.0
 11
463.9859786262384
 21
-187.4255417123144
 31
0.0
  0
LINE
  5
127
330
1F
100
AcDbEntity
  8
Capa 01
100
AcDbLine
 10
463.9859786262384
 20
-187.4255417123144
 30
0.0
 11
463.8998383819744
 21
-187.4360593889511
 31
0.0
  0
LINE
  5
128
330
1F
100
AcDbEntity
  8
Capa 01
100
AcDbLine
 10
463.8998383819744
 20
-187.4360593889511
 30
0.0
 11
463.8141150683261
 21
-187.449560377836
 31
0.0
  0
LINE
  5
129
330
1F
100
AcDbEntity
  8
Capa 01
100
AcDbLine
 10
463.8141150683261
 20
-187.449560377836
 30
0.0
 11
463.7289119752099
 21
-187.466028411329
 31
0.0
  0
LINE
  5
12A
330
1F
100
AcDbEntity
  8
Capa 01
100
AcDbLine
 10
463.7289119752099
 20
-187.466028411329
 30
0.0
 11
463.6443317657166
 21
-187.4854436467326
 31
0.0
  0
LINE
  5
12B
330
1F
100
AcDbEntity
  8
Capa 01
100
AcDbLine
 10
463.6443317657166
 20
-187.4854436467326
 30
0.0
 11
463.560476352411
 21
-187.5077826902001
 31
0.0
  0
LINE
  5
12C
330
1F
100
AcDbEntity
  8
Capa 01
100
AcDbLine
 10
463.560476352411
 20
-187.5077826902001
 30
0.0
 11
463.4774467745348
 21
-187.5330186249243
 31
0.0
  0
LINE
  5
12D
330
1F
100
AcDbEntity
  8
Capa 01
100
AcDbLine
 10
463.4774467745348
 20
-187.5330186249243
 30
0.0
 11
463.3953430762623
 21
-187.5611210435692
 31
0.0
  0
LINE
  5
12E
330
1F
100
AcDbEntity
  8
Capa 01
100
AcDbLine
 10
463.3953430762623
 20
-187.5611210435692
 30
0.0
 11
463.3142641861553
 21
-187.5920560849092
 31
0.0
  0
LINE
  5
12F
330
1F
100
AcDbEntity
  8
Capa 01
100
AcDbLine
 10
463.3142641861553
 20
-187.5920560849092
 30
0.0
 11
463.2343077979612
 21
-187.6257864746291
 31
0.0
  0
LINE
  5
130
330
1F
100
AcDbEntity
  8
Capa 01
100
AcDbLine
 10
463.2343077979612
 20
-187.6257864746291
 30
0.0
 11
463.1555702529001
 21
-187.6622715702362
 31
0.0
  0
LINE
  5
131
330
1F
100
AcDbEntity
  8
Capa 01
100
AcDbLine
 10
463.1555702529001
 20
-187.6622715702362
 30
0.0
 11
463.0781464235814
 21
-187.7014674100323
 31
0.0
  0
LINE
  5
132
330
1F
100
AcDbEntity
  8
Capa 01
100
AcDbLine
 10
463.0781464235814
 20
-187.7014674100323
 30
0.0
 11
463.0021295996888
 21
-187.7433267660831
 31
0.0
  0
LINE
  5
133
330
1F
100
AcDbEntity
  8
Capa 01
100
AcDbLine
 10
463.0021295996888
 20
-187.7433267660831
 30
0.0
 11
462.9276113755744
 21
-187.7877992011249
 31
0.0
  0
LINE
  5
134
330
1F
100
AcDbEntity
  8
Capa 01
100
AcDbLine
 10
462.9276113755744
 20
-187.7877992011249
 30
0.0
 11
462.8546815398944
 21
-187.8348311293374
 31
0.0
  0
LINE
  5
135
330
1F
100
AcDbEntity
  8
Capa 01
100
AcDbLine
 10
462.8546815398944
 20
-187.8348311293374
 30
0.0
 11
462.7834279674203
 21
-187.8843658809103
 31
0.0
  0
LINE
  5
136
330
1F
100
AcDbEntity
  8
Capa 01
100
AcDbLine
 10
462.7834279674203
 20
-187.8843658809103
 30
0.0
 11
462.7139365131573
 21
-187.936343770326
 31
0.0
  0
LINE
  5
137
330
1F
100
AcDbEntity
  8
Capa 01
100
AcDbLine
 10
462.7139365131573
 20
-187.936343770326
 30
0.0
 11
462.6462909088952
 21
-187.9907021682763
 31
0.0
  0
LINE
  5
138
330
1F
100
AcDbEntity
  8
Capa 01
100
AcDbLine
 10
462.6462909088952
 20
-187.9907021682763
 30
0.0
 11
462.5805726623184
 21
-188.0473755771253
 31
0.0
  0
LINE
  5
139
330
1F
100
AcDbEntity
  8
Capa 01
100
AcDbLine
 10
462.5805726623184
 20
-188.0473755771253
 30
0.0
 11
462.5168609587954
 21
-188.1062957098297
 31
0.0
  0
LINE
  5
13A
330
1F
100
AcDbEntity
  8
Capa 01
100
AcDbLine
 10
462.5168609587954
 20
-188.1062957098297
 30
0.0
 11
462.4552325659667
 21
-188.1673915722187
 31
0.0
  0
LINE
  5
13B
330
1F
100
AcDbEntity
  8
Capa 01
100
AcDbLine
 10
462.4552325659667
 20
-188.1673915722187
 30
0.0
 11
462.3957617412454
 21
-188.2305895485366
 31
0.0
  0
LINE
  5
13C
330
1F
100
AcDbEntity
  8
Capa 01
100
AcDbLine
 10
462.3957617412454
 20
-188.2305895485366
 30
0.0
 11
462.3385201423434
 21
-188.2958134901443
 31
0.0
  0
LINE
  5
13D
330
1F
100
AcDbEntity
  8
Capa 01
100
AcDbLine
 10
462.3385201423434
 20
-188.2958134901443
 30
0.0
 11
462.2835767409289
 21
-188.3629848072723
 31
0.0
  0
LINE
  5
13E
330
1F
100
AcDbEntity
  8
Capa 01
100
AcDbLine
 10
462.2835767409289
 20
-188.3629848072723
 30
0.0
 11
462.2309977395213
 21
-188.4320225637153
 31
0.0
  0
LINE
  5
13F
330
1F
100
AcDbEntity
  8
Capa 01
100
AcDbLine
 10
462.2309977395213
 20
-188.4320225637153
 30
0.0
 11
462.180846491722
 21
-188.5028435743539
 31
0.0
  0
LINE
  5
140
330
1F
100
AcDbEntity
  8
Capa 01
100
AcDbLine
 10
462.180846491722
 20
-188.5028435743539
 30
0.0
 11
462.1331834258785
 21
-188.5753625053864
 31
0.0
  0
LINE
  5
141
330
1F
100
AcDbEntity
  8
Capa 01
100
AcDbLine
 10
462.1331834258785
 20
-188.5753625053864
 30
0.0
 11
462.0880659722727
 21
-188.6494919771492
 31
0.0
  0
LINE
  5
142
330
1F
100
AcDbEntity
  8
Capa 01
100
AcDbLine
 10
462.0880659722727
 20
-188.6494919771492
 30
0.0
 11
462.0455484939221
 21
-188.7251426694025
 31
0.0
  0
LINE
  5
143
330
1F
100
AcDbEntity
  8
Capa 01
100
AcDbLine
 10
462.0455484939221
 20
-188.7251426694025
 30
0.0
 11
462.0056822210766
 21
-188.8022234289545
 31
0.0
  0
LINE
  5
144
330
1F
100
AcDbEntity
  8
Capa 01
100
AcDbLine
 10
462.0056822210766
 20
-188.8022234289545
 30
0.0
 11
461.9685151894899
 21
-188.8806413794935
 31
0.0
  0
LINE
  5
145
330
1F
100
AcDbEntity
  8
Capa 01
100
AcDbLine
 10
461.9685151894899
 20
-188.8806413794935
 30
0.0
 11
461.9340921825402
 21
-188.9603020334969
 31
0.0
  0
LINE
  5
146
330
1F
100
AcDbEntity
  8
Capa 01
100
AcDbLine
 10
461.9340921825402
 20
-188.9603020334969
 30
0.0
 11
461.9024546772698
 21
-189.0411094060811
 31
0.0
  0
LINE
  5
147
330
1F
100
AcDbEntity
  8
Capa 01
100
AcDbLine
 10
461.9024546772698
 20
-189.0411094060811
 30
0.0
 11
461.8736407944082
 21
-189.1229661306561
 31
0.0
  0
LINE
  5
148
330
1F
100
AcDbEntity
  8
Capa 01
100
AcDbLine
 10
461.8736407944082
 20
-189.1229661306561
 30
0.0
 11
461.8476852524403
 21
-189.2057735762444
 31
0.0
  0
LINE
  5
149
330
1F
100
AcDbEntity
  8
Capa 01
100
AcDbLine
 10
461.8476852524403
 20
-189.2057735762444
 30
0.0
 11
461.8246193257724
 21
-189.2894319663236
 31
0.0
  0
LINE
  5
14A
330
1F
100
AcDbEntity
  8
Capa 01
100
AcDbLine
 10
461.8246193257724
 20
-189.2894319663236
 30
0.0
 11
461.8044708070495
 21
-189.3738404990497
 31
0.0
  0
LINE
  5
14B
330
1F
100
AcDbEntity
  8
Capa 01
100
AcDbLine
 10
461.8044708070495
 20
-189.3738404990497
 30
0.0
 11
461.7872639736676
 21
-189.4588974687152
 31
0.0
  0
LINE
  5
14C
330
1F
100
AcDbEntity
  8
Capa 01
100
AcDbLine
 10
461.7872639736676
 20
-189.4588974687152
 30
0.0
 11
461.7730195585205
 21
-189.5445003882964
 31
0.0
  0
LINE
  5
14D
330
1F
100
AcDbEntity
  8
Capa 01
100
AcDbLine
 10
461.7730195585205
 20
-189.5445003882964
 30
0.0
 11
461.7617547250191
 21
-189.6305461129426
 31
0.0
  0
LINE
  5
14E
330
1F
100
AcDbEntity
  8
Capa 01
100
AcDbLine
 10
461.7617547250191
 20
-189.6305461129426
 30
0.0
 11
461.7534830464103
 21
-189.7169309642574
 31
0.0
  0
LINE
  5
14F
330
1F
100
AcDbEntity
  8
Capa 01
100
AcDbLine
 10
461.7534830464103
 20
-189.7169309642574
 30
0.0
 11
461.7482144894227
 21
-189.8035508552235
 31
0.0
  0
LINE
  5
150
330
1F
100
AcDbEntity
  8
Capa 01
100
AcDbLine
 10
461.7482144894227
 20
-189.8035508552235
 30
0.0
 11
461.745955402257
 21
-189.8903014156187
 31
0.0
  0
LINE
  5
151
330
1F
100
AcDbEntity
  8
Capa 01
100
AcDbLine
 10
461.745955402257
 20
-189.8903014156187
 30
0.0
 11
461.7467085069373
 21
-189.9770781177745
 31
0.0
  0
LINE
  5
152
330
1F
100
AcDbEntity
  8
Capa 01
100
AcDbLine
 10
461.7467085069373
 20
-189.9770781177745
 30
0.0
 11
461.7504728960311
 21
-190.0637764025238
 31
0.0
  0
LINE
  5
153
330
1F
100
AcDbEntity
  8
Capa 01
100
AcDbLine
 10
461.7504728960311
 20
-190.0637764025238
 30
0.0
 11
461.7572440337428
 21
-190.1502918051859
 31
0.0
  0
LINE
  5
154
330
1F
100
AcDbEntity
  8
Capa 01
100
AcDbLine
 10
461.7572440337428
 20
-190.1502918051859
 30
0.0
 11
461.7670137613788
 21
-190.2365200814392
 31
0.0
  0
LINE
  5
155
330
1F
100
AcDbEntity
  8
Capa 01
100
AcDbLine
 10
461.7670137613788
 20
-190.2365200814392
 30
0.0
 11
461.7797703071784
 21
-190.3223573329269
 31
0.0
  0
LINE
  5
156
330
1F
100
AcDbEntity
  8
Capa 01
100
AcDbLine
 10
461.7797703071784
 20
-190.3223573329269
 30
0.0
 11
461.7954983004972
 21
-190.4077001324467
 31
0.0
  0
LINE
  5
157
330
1F
100
AcDbEntity
  8
Capa 01
100
AcDbLine
 10
461.7954983004972
 20
-190.4077001324467
 30
0.0
 11
461.8141787903284
 21
-190.4924456485721
 31
0.0
  0
LINE
  5
158
330
1F
100
AcDbEntity
  8
Capa 01
100
AcDbLine
 10
461.8141787903284
 20
-190.4924456485721
 30
0.0
 11
461.8357892681367
 21
-190.576491769557
 31
0.0
  0
LINE
  5
159
330
1F
100
AcDbEntity
  8
Capa 01
100
AcDbLine
 10
461.8357892681367
 20
-190.576491769557
 30
0.0
 11
461.8603036949796
 21
-190.6597372263716
 31
0.0
  0
LINE
  5
15A
330
1F
100
AcDbEntity
  8
Capa 01
100
AcDbLine
 10
461.8603036949796
 20
-190.6597372263716
 30
0.0
 11
461.8876925328821
 21
-190.7420817147242
 31
0.0
  0
LINE
  5
15B
330
1F
100
AcDbEntity
  8
Capa 01
100
AcDbLine
 10
461.8876925328821
 20
-190.7420817147242
 30
0.0
 11
461.9179227804277
 21
-190.82342601592
 31
0.0
  0
LINE
  5
15C
330
1F
100
AcDbEntity
  8
Capa 01
100
AcDbLine
 10
461.9179227804277
 20
-190.82342601592
 30
0.0
 11
461.9509580125227
 21
-190.9036721164117
 31
0.0
  0
LINE
  5
15D
330
1F
100
AcDbEntity
  8
Capa 01
100
AcDbLine
 10
461.9509580125227
 20
-190.9036721164117
 30
0.0
 11
461.9867584242855
 21
-190.9827233258985
 31
0.0
  0
LINE
  5
15E
330
1F
100
AcDbEntity
  8
Capa 01
100
AcDbLine
 10
461.9867584242855
 20
-190.9827233258985
 30
0.0
 11
462.0252808790083
 21
-191.0604843938299
 31
0.0
  0
LINE
  5
15F
330
1F
100
AcDbEntity
  8
Capa 01
100
AcDbLine
 10
462.0252808790083
 20
-191.0604843938299
 30
0.0
 11
462.0664789601336
 21
-191.1368616241757
 31
0.0
  0
LINE
  5
160
330
1F
100
AcDbEntity
  8
Capa 01
100
AcDbLine
 10
462.0664789601336
 20
-191.1368616241757
 30
0.0
 11
462.1103030271824
 21
-191.2117629883222
 31
0.0
  0
LINE
  5
161
330
1F
100
AcDbEntity
  8
Capa 01
100
AcDbLine
 10
462.1103030271824
 20
-191.2117629883222
 30
0.0
 11
462.1567002755672
 21
-191.2850982359595
 31
0.0
  0
LINE
  5
162
330
1F
100
AcDbEntity
  8
Capa 01
100
AcDbLine
 10
462.1567002755672
 20
-191.2850982359595
 30
0.0
 11
462.2056148002176
 21
-191.3567790038259
 31
0.0
  0
LINE
  5
163
330
1F
100
AcDbEntity
  8
Capa 01
100
AcDbLine
 10
462.2056148002176
 20
-191.3567790038259
 30
0.0
 11
462.2569876629411
 21
-191.4267189221794
 31
0.0
  0
LINE
  5
164
330
1F
100
AcDbEntity
  8
Capa 01
100
AcDbLine
 10
462.2569876629411
 20
-191.4267189221794
 30
0.0
 11
462.3107569634395
 21
-191.4948337188657
 31
0.0
  0
LINE
  5
165
330
1F
100
AcDbEntity
  8
Capa 01
100
AcDbLine
 10
462.3107569634395
 20
-191.4948337188657
 30
0.0
 11
462.3668579138936
 21
-191.5610413208601
 31
0.0
  0
LINE
  5
166
330
1F
100
AcDbEntity
  8
Capa 01
100
AcDbLine
 10
462.3668579138936
 20
-191.5610413208601
 30
0.0
 11
462.4252229170277
 21
-191.625261953159
 31
0.0
  0
LINE
  5
167
330
1F
100
AcDbEntity
  8
Capa 01
100
AcDbLine
 10
462.4252229170277
 20
-191.625261953159
 30
0.0
 11
462.485781647559
 21
-191.6874182349023
 31
0.0
  0
LINE
  5
168
330
1F
100
AcDbEntity
  8
Capa 01
100
AcDbLine
 10
462.485781647559
 20
-191.6874182349023
 30
0.0
 11
462.5484611369337
 21
-191.7474352726118
 31
0.0
  0
LINE
  5
169
330
1F
100
AcDbEntity
  8
Capa 01
100
AcDbLine
 10
462.5484611369337
 20
-191.7474352726118
 30
0.0
 11
462.6131858612493
 21
-191.8052407504316
 31
0.0
  0
LINE
  5
16A
330
1F
100
AcDbEntity
  8
Capa 01
100
AcDbLine
 10
462.6131858612493
 20
-191.8052407504316
 30
0.0
 11
462.6798778322541
 21
-191.8607650172632
 31
0.0
  0
LINE
  5
16B
330
1F
100
AcDbEntity
  8
Capa 01
100
AcDbLine
 10
462.6798778322541
 20
-191.8607650172632
 30
0.0
 11
462.7484566913176
 21
-191.9139411706898
 31
0.0
  0
LINE
  5
16C
330
1F
100
AcDbEntity
  8
Capa 01
100
AcDbLine
 10
462.7484566913176
 20
-191.9139411706898
 30
0.0
 11
462.8188398062561
 21
-191.9647051375883
 31
0.0
  0
LINE
  5
16D
330
1F
100
AcDbEntity
  8
Capa 01
100
AcDbLine
 10
462.8188398062561
 20
-191.9647051375883
 30
0.0
 11
462.8909423708978
 21
-192.0129957513323
 31
0.0
  0
LINE
  5
16E
330
1F
100
AcDbEntity
  8
Capa 01
100
AcDbLine
 10
462.8909423708978
 20
-192.0129957513323
 30
0.0
 11
462.9646775072686
 21
-192.0587548254936
 31
0.0
  0
LINE
  5
16F
330
1F
100
AcDbEntity
  8
Capa 01
100
AcDbLine
 10
462.9646775072686
 20
-192.0587548254936
 30
0.0
 11
463.0399563702718
 21
-192.1019272239519
 31
0.0
  0
LINE
  5
170
330
1F
100
AcDbEntity
  8
Capa 01
100
AcDbLine
 10
463.0399563702718
 20
-192.1019272239519
 30
0.0
 11
463.116688254741
 21
-192.1424609273296
 31
0.0
  0
LINE
  5
171
330
1F
100
AcDbEntity
  8
Capa 01
100
AcDbLine
 10
463.116688254741
 20
-192.1424609273296
 30
0.0
 11
463.1947807047318
 21
-192.1803070956712
 31
0.0
  0
LINE
  5
172
330
1F
100
AcDbEntity
  8
Capa 01
100
AcDbLine
 10
463.1947807047318
 20
-192.1803070956712
 30
0.0
 11
463.2741396249244
 21
-192.2154201272915
 31
0.0
  0
LINE
  5
173
330
1F
100
AcDbEntity
  8
Capa 01
100
AcDbLine
 10
463.2741396249244
 20
-192.2154201272915
 30
0.0
 11
463.354669394001
 21
-192.2477577137224
 31
0.0
  0
LINE
  5
174
330
1F
100
AcDbEntity
  8
Capa 01
100
AcDbLine
 10
463.354669394001
 20
-192.2477577137224
 30
0.0
 11
463.436272979862
 21
-192.2772808906909
 31
0.0
  0
LINE
  5
175
330
1F
100
AcDbEntity
  8
Capa 01
100
AcDbLine
 10
463.436272979862
 20
-192.2772808906909
 30
0.0
 11
463.5188520565426
 21
-192.3039540850683
 31
0.0
  0
LINE
  5
176
330
1F
100
AcDbEntity
  8
Capa 01
100
AcDbLine
 10
463.5188520565426
 20
-192.3039540850683
 30
0.0
 11
463.6023071226871
 21
-192.3277451577327
 31
0.0
  0
LINE
  5
177
330
1F
100
AcDbEntity
  8
Capa 01
100
AcDbLine
 10
463.6023071226871
 20
-192.3277451577327
 30
0.0
 11
463.6865376214408
 21
-192.3486254422947
 31
0.0
  0
LINE
  5
178
330
1F
100
AcDbEntity
  8
Capa 01
100
AcDbLine
 10
463.6865376214408
 20
-192.3486254422947
 30
0.0
 11
463.7714420616135
 21
-192.3665697796377
 31
0.0
  0
LINE
  5
179
330
1F
100
AcDbEntity
  8
Capa 01
100
AcDbLine
 10
463.7714420616135
 20
-192.3665697796377
 30
0.0
 11
463.8569181399675
 21
-192.3815565482328
 31
0.0
  0
LINE
  5
17A
330
1F
100
AcDbEntity
  8
Capa 01
100
AcDbLine
 10
463.8569181399675
 20
-192.3815565482328
 30
0.0
 11
463.942862864486
 21
-192.3935676901911
 31
0.0
  0
LINE
  5
17B
330
1F
100
AcDbEntity
  8
Capa 01
100
AcDbLine
 10
463.942862864486
 20
-192.3935676901911
 30
0.0
 11
464.0291726784699
 21
-192.4025887330222
 31
0.0
  0
LINE
  5
17C
330
1F
100
AcDbEntity
  8
Capa 01
100
AcDbLine
 10
464.0291726784699
 20
-192.4025887330222
 30
0.0
 11
464.1157435853159
 21
-192.408608807072
 31
0.0
  0
LINE
  5
17D
330
1F
100
AcDbEntity
  8
Capa 01
100
AcDbLine
 10
464.1157435853159
 20
-192.408608807072
 30
0.0
 11
464.202471273824
 21
-192.4116206586201
 31
0.0
  0
LINE
  5
17E
330
1F
100
AcDbEntity
  8
Capa 01
100
AcDbLine
 10
464.202471273824
 20
-192.4116206586201
 30
0.0
 11
464.2892512438845
 21
-192.4116206586201
 31
0.0
  0
LINE
  5
17F
330
1F
100
AcDbEntity
  8
Capa 01
100
AcDbLine
 10
464.2892512438845
 20
-192.4116206586201
 30
0.0
 11
464.3759789323926
 21
-192.408608807072
 31
0.0
  0
LINE
  5
180
330
1F
100
AcDbEntity
  8
Capa 01
100
AcDbLine
 10
464.3759789323926
 20
-192.408608807072
 30
0.0
 11
464.4625498392386
 21
-192.4025887330222
 31
0.0
  0
LINE
  5
181
330
1F
100
AcDbEntity
  8
Capa 01
100
AcDbLine
 10
464.4625498392386
 20
-192.4025887330222
 30
0.0
 11
464.5488596532225
 21
-192.3935676901911
 31
0.0
  0
LINE
  5
182
330
1F
100
AcDbEntity
  8
Capa 01
100
AcDbLine
 10
464.5488596532225
 20
-192.3935676901911
 30
0.0
 11
464.634804377741
 21
-192.3815565482328
 31
0.0
  0
LINE
  5
183
330
1F
100
AcDbEntity
  8
Capa 01
100
AcDbLine
 10
464.634804377741
 20
-192.3815565482328
 30
0.0
 11
464.720280456095
 21
-192.3665697796377
 31
0.0
  0
LINE
  5
184
330
1F
100
AcDbEntity
  8
Capa 01
100
AcDbLine
 10
464.720280456095
 20
-192.3665697796377
 30
0.0
 11
464.8051848962676
 21
-192.3486254422947
 31
0.0
  0
LINE
  5
185
330
1F
100
AcDbEntity
  8
Capa 01
100
AcDbLine
 10
464.8051848962676
 20
-192.3486254422947
 30
0.0
 11
464.8894153950214
 21
-192.3277451577327
 31
0.0
  0
LINE
  5
186
330
1F
100
AcDbEntity
  8
Capa 01
100
AcDbLine
 10
464.8894153950214
 20
-192.3277451577327
 30
0.0
 11
464.9728704611659
 21
-192.3039540850683
 31
0.0
  0
LINE
  5
187
330
1F
100
AcDbEntity
  8
Capa 01
100
AcDbLine
 10
464.9728704611659
 20
-192.3039540850683
 30
0.0
 11
465.0554495378464
 21
-192.2772808906909
 31
0.0
  0
LINE
  5
188
330
1F
100
AcDbEntity
  8
Capa 01
100
AcDbLine
 10
465.0554495378464
 20
-192.2772808906909
 30
0.0
 11
465.1370531237075
 21
-192.2477577137225
 31
0.0
  0
LINE
  5
189
330
1F
100
AcDbEntity
  8
Capa 01
100
AcDbLine
 10
465.1370531237075
 20
-192.2477577137225
 30
0.0
 11
465.2175828927841
 21
-192.2154201272915
 31
0.0
  0
LINE
  5
18A
330
1F
100
AcDbEntity
  8
Capa 01
100
AcDbLine
 10
465.2175828927841
 20
-192.2154201272915
 30
0.0
 11
465.2969418129767
 21
-192.1803070956712
 31
0.0
  0
LINE
  5
18B
330
1F
100
AcDbEntity
  8
Capa 01
100
AcDbLine
 10
465.2969418129767
 20
-192.1803070956712
 30
0.0
 11
465.3750342629675
 21
-192.1424609273296
 31
0.0
  0
LINE
  5
18C
330
1F
100
AcDbEntity
  8
Capa 01
100
AcDbLine
 10
465.3750342629675
 20
-192.1424609273296
 30
0.0
 11
465.4517661474367
 21
-192.1019272239519
 31
0.0
  0
LINE
  5
18D
330
1F
100
AcDbEntity
  8
Capa 01
100
AcDbLine
 10
465.4517661474367
 20
-192.1019272239519
 30
0.0
 11
465.5270450104399
 21
-192.0587548254936
 31
0.0
  0
LINE
  5
18E
330
1F
100
AcDbEntity
  8
Capa 01
100
AcDbLine
 10
465.5270450104399
 20
-192.0587548254936
 30
0.0
 11
465.6007801468106
 21
-192.0129957513323
 31
0.0
  0
LINE
  5
18F
330
1F
100
AcDbEntity
  8
Capa 01
100
AcDbLine
 10
465.6007801468106
 20
-192.0129957513323
 30
0.0
 11
465.6728827114524
 21
-191.9647051375883
 31
0.0
  0
LINE
  5
190
330
1F
100
AcDbEntity
  8
Capa 01
100
AcDbLine
 10
465.6728827114524
 20
-191.9647051375883
 30
0.0
 11
465.7432658263908
 21
-191.9139411706898
 31
0.0
  0
LINE
  5
191
330
1F
100
AcDbEntity
  8
Capa 01
100
AcDbLine
 10
465.7432658263908
 20
-191.9139411706898
 30
0.0
 11
465.8118446854543
 21
-191.8607650172632
 31
0.0
  0
LINE
  5
192
330
1F
100
AcDbEntity
  8
Capa 01
100
AcDbLine
 10
465.8118446854543
 20
-191.8607650172632
 30
0.0
 11
465.8785366564592
 21
-191.8052407504316
 31
0.0
  0
LINE
  5
193
330
1F
100
AcDbEntity
  8
Capa 01
100
AcDbLine
 10
465.8785366564592
 20
-191.8052407504316
 30
0.0
 11
465.9432613807748
 21
-191.7474352726118
 31
0.0
  0
LINE
  5
194
330
1F
100
AcDbEntity
  8
Capa 01
100
AcDbLine
 10
465.9432613807748
 20
-191.7474352726118
 30
0.0
 11
466.0059408701495
 21
-191.6874182349023
 31
0.0
  0
LINE
  5
195
330
1F
100
AcDbEntity
  8
Capa 01
100
AcDbLine
 10
466.0059408701495
 20
-191.6874182349023
 30
0.0
 11
466.0664996006807
 21
-191.625261953159
 31
0.0
  0
LINE
  5
196
330
1F
100
AcDbEntity
  8
Capa 01
100
AcDbLine
 10
466.0664996006807
 20
-191.625261953159
 30
0.0
 11
466.1248646038148
 21
-191.5610413208601
 31
0.0
  0
LINE
  5
197
330
1F
100
AcDbEntity
  8
Capa 01
100
AcDbLine
 10
466.1248646038148
 20
-191.5610413208601
 30
0.0
 11
466.1809655542689
 21
-191.4948337188657
 31
0.0
  0
LINE
  5
198
330
1F
100
AcDbEntity
  8
Capa 01
100
AcDbLine
 10
466.1809655542689
 20
-191.4948337188657
 30
0.0
 11
466.2347348547673
 21
-191.4267189221794
 31
0.0
  0
LINE
  5
199
330
1F
100
AcDbEntity
  8
Capa 01
100
AcDbLine
 10
466.2347348547673
 20
-191.4267189221794
 30
0.0
 11
466.2861077174908
 21
-191.3567790038259
 31
0.0
  0
LINE
  5
19A
330
1F
100
AcDbEntity
  8
Capa 01
100
AcDbLine
 10
466.2861077174908
 20
-191.3567790038259
 30
0.0
 11
466.3350222421412
 21
-191.2850982359595
 31
0.0
  0
LINE
  5
19B
330
1F
100
AcDbEntity
  8
Capa 01
100
AcDbLine
 10
466.3350222421412
 20
-191.2850982359595
 30
0.0
 11
466.3814194905261
 21
-191.2117629883222
 31
0.0
  0
LINE
  5
19C
330
1F
100
AcDbEntity
  8
Capa 01
100
AcDbLine
 10
466.3814194905261
 20
-191.2117629883222
 30
0.0
 11
466.4252435575748
 21
-191.1368616241757
 31
0.0
  0
LINE
  5
19D
330
1F
100
AcDbEntity
  8
Capa 01
100
AcDbLine
 10
466.4252435575748
 20
-191.1368616241757
 30
0.0
 11
466.4664416387001
 21
-191.0604843938299
 31
0.0
  0
LINE
  5
19E
330
1F
100
AcDbEntity
  8
Capa 01
100
AcDbLine
 10
466.4664416387001
 20
-191.0604843938299
 30
0.0
 11
466.5049640934229
 21
-190.9827233258985
 31
0.0
  0
LINE
  5
19F
330
1F
100
AcDbEntity
  8
Capa 01
100
AcDbLine
 10
466.5049640934229
 20
-190.9827233258985
 30
0.0
 11
466.5407645051857
 21
-190.9036721164117
 31
0.0
  0
LINE
  5
1A0
330
1F
100
AcDbEntity
  8
Capa 01
100
AcDbLine
 10
466.5407645051857
 20
-190.9036721164117
 30
0.0
 11
466.5737997372808
 21
-190.82342601592
 31
0.0
  0
LINE
  5
1A1
330
1F
100
AcDbEntity
  8
Capa 01
100
AcDbLine
 10
466.5737997372808
 20
-190.82342601592
 30
0.0
 11
466.6040299848264
 21
-190.7420817147242
 31
0.0
  0
LINE
  5
1A2
330
1F
100
AcDbEntity
  8
Capa 01
100
AcDbLine
 10
466.6040299848264
 20
-190.7420817147242
 30
0.0
 11
466.6314188227288
 21
-190.6597372263716
 31
0.0
  0
LINE
  5
1A3
330
1F
100
AcDbEntity
  8
Capa 01
100
AcDbLine
 10
466.6314188227288
 20
-190.6597372263716
 30
0.0
 11
466.6559332495718
 21
-190.576491769557
 31
0.0
  0
LINE
  5
1A4
330
1F
100
AcDbEntity
  8
Capa 01
100
AcDbLine
 10
466.6559332495718
 20
-190.576491769557
 30
0.0
 11
466.6775437273801
 21
-190.4924456485721
 31
0.0
  0
LINE
  5
1A5
330
1F
100
AcDbEntity
  8
Capa 01
100
AcDbLine
 10
466.6775437273801
 20
-190.4924456485721
 30
0.0
 11
466.6962242172113
 21
-190.4077001324467
 31
0.0
  0
LINE
  5
1A6
330
1F
100
AcDbEntity
  8
Capa 01
100
AcDbLine
 10
466.6962242172113
 20
-190.4077001324467
 30
0.0
 11
466.7119522105301
 21
-190.322357332927
 31
0.0
  0
LINE
  5
1A7
330
1F
100
AcDbEntity
  8
Capa 01
100
AcDbLine
 10
466.7119522105301
 20
-190.322357332927
 30
0.0
 11
466.7247087563296
 21
-190.2365200814392
 31
0.0
  0
LINE
  5
1A8
330
1F
100
AcDbEntity
  8
Capa 01
100
AcDbLine
 10
466.7247087563296
 20
-190.2365200814392
 30
0.0
 11
466.7344784839656
 21
-190.1502918051859
 31
0.0
  0
LINE
  5
1A9
330
1F
100
AcDbEntity
  8
Capa 01
100
AcDbLine
 10
466.7344784839656
 20
-190.1502918051859
 30
0.0
 11
466.7412496216774
 21
-190.0637764025238
 31
0.0
  0
LINE
  5
1AA
330
1F
100
AcDbEntity
  8
Capa 01
100
AcDbLine
 10
466.7412496216774
 20
-190.0637764025238
 30
0.0
 11
466.7450140107712
 21
-189.9770781177745
 31
0.0
  0
LINE
  5
1AB
330
1F
100
AcDbEntity
  8
Capa 01
100
AcDbLine
 10
466.7450140107712
 20
-189.9770781177745
 30
0.0
 11
466.7457671154515
 21
-189.8903014156187
 31
0.0
  0
LINE
  5
1AC
330
1F
100
AcDbEntity
  8
Capa 01
100
AcDbLine
 10
466.7457671154515
 20
-189.8903014156187
 30
0.0
 11
466.7435080282858
 21
-189.8035508552235
 31
0.0
  0
LINE
  5
1AD
330
1F
100
AcDbEntity
  8
Capa 01
100
AcDbLine
 10
466.7435080282858
 20
-189.8035508552235
 30
0.0
 11
466.7382394712981
 21
-189.7169309642574
 31
0.0
  0
LINE
  5
1AE
330
1F
100
AcDbEntity
  8
Capa 01
100
AcDbLine
 10
466.7382394712981
 20
-189.7169309642574
 30
0.0
 11
466.7299677926894
 21
-189.6305461129426
 31
0.0
  0
LINE
  5
1AF
330
1F
100
AcDbEntity
  8
Capa 01
100
AcDbLine
 10
466.7299677926894
 20
-189.6305461129426
 30
0.0
 11
466.718702959188
 21
-189.5445003882964
 31
0.0
  0
LINE
  5
1B0
330
1F
100
AcDbEntity
  8
Capa 01
100
AcDbLine
 10
466.718702959188
 20
-189.5445003882964
 30
0.0
 11
466.7044585440408
 21
-189.4588974687152
 31
0.0
  0
LINE
  5
1B1
330
1F
100
AcDbEntity
  8
Capa 01
100
AcDbLine
 10
466.7044585440408
 20
-189.4588974687152
 30
0.0
 11
466.6872517106589
 21
-189.3738404990497
 31
0.0
  0
LINE
  5
1B2
330
1F
100
AcDbEntity
  8
Capa 01
100
AcDbLine
 10
466.6872517106589
 20
-189.3738404990497
 30
0.0
 11
466.6671031919361
 21
-189.2894319663236
 31
0.0
  0
LINE
  5
1B3
330
1F
100
AcDbEntity
  8
Capa 01
100
AcDbLine
 10
466.6671031919361
 20
-189.2894319663236
 30
0.0
 11
466.6440372652681
 21
-189.2057735762444
 31
0.0
  0
LINE
  5
1B4
330
1F
100
AcDbEntity
  8
Capa 01
100
AcDbLine
 10
466.6440372652681
 20
-189.2057735762444
 30
0.0
 11
466.6180817233002
 21
-189.1229661306561
 31
0.0
  0
LINE
  5
1B5
330
1F
100
AcDbEntity
  8
Capa 01
100
AcDbLine
 10
466.6180817233002
 20
-189.1229661306561
 30
0.0
 11
466.5892678404387
 21
-189.0411094060811
 31
0.0
  0
LINE
  5
1B6
330
1F
100
AcDbEntity
  8
Capa 01
100
AcDbLine
 10
466.5892678404387
 20
-189.0411094060811
 30
0.0
 11
466.5576303351683
 21
-188.9603020334969
 31
0.0
  0
LINE
  5
1B7
330
1F
100
AcDbEntity
  8
Capa 01
100
AcDbLine
 10
466.5576303351683
 20
-188.9603020334969
 30
0.0
 11
466.5232073282186
 21
-188.8806413794935
 31
0.0
  0
LINE
  5
1B8
330
1F
100
AcDbEntity
  8
Capa 01
100
AcDbLine
 10
466.5232073282186
 20
-188.8806413794935
 30
0.0
 11
466.4860402966319
 21
-188.8022234289545
 31
0.0
  0
LINE
  5
1B9
330
1F
100
AcDbEntity
  8
Capa 01
100
AcDbLine
 10
466.4860402966319
 20
-188.8022234289545
 30
0.0
 11
466.4461740237864
 21
-188.7251426694025
 31
0.0
  0
LINE
  5
1BA
330
1F
100
AcDbEntity
  8
Capa 01
100
AcDbLine
 10
466.4461740237864
 20
-188.7251426694025
 30
0.0
 11
466.4036565454358
 21
-188.6494919771492
 31
0.0
  0
LINE
  5
1BB
330
1F
100
AcDbEntity
  8
Capa 01
100
AcDbLine
 10
466.4036565454358
 20
-188.6494919771492
 30
0.0
 11
466.35853909183
 21
-188.5753625053864
 31
0.0
  0
LINE
  5
1BC
330
1F
100
AcDbEntity
  8
Capa 01
100
AcDbLine
 10
466.35853909183
 20
-188.5753625053864
 30
0.0
 11
466.3108760259864
 21
-188.5028435743539
 31
0.0
  0
LINE
  5
1BD
330
1F
100
AcDbEntity
  8
Capa 01
100
AcDbLine
 10
466.3108760259864
 20
-188.5028435743539
 30
0.0
 11
466.2607247781871
 21
-188.4320225637153
 31
0.0
  0
LINE
  5
1BE
330
1F
100
AcDbEntity
  8
Capa 01
100
AcDbLine
 10
466.2607247781871
 20
-188.4320225637153
 30
0.0
 11
466.2081457767795
 21
-188.3629848072723
 31
0.0
  0
LINE
  5
1BF
330
1F
100
AcDbEntity
  8
Capa 01
100
AcDbLine
 10
466.2081457767795
 20
-188.3629848072723
 30
0.0
 11
466.153202375365
 21
-188.2958134901443
 31
0.0
  0
LINE
  5
1C0
330
1F
100
AcDbEntity
  8
Capa 01
100
AcDbLine
 10
466.153202375365
 20
-188.2958134901443
 30
0.0
 11
466.0959607764631
 21
-188.2305895485366
 31
0.0
  0
LINE
  5
1C1
330
1F
100
AcDbEntity
  8
Capa 01
100
AcDbLine
 10
466.0959607764631
 20
-188.2305895485366
 30
0.0
 11
466.0364899517418
 21
-188.1673915722187
 31
0.0
  0
LINE
  5
1C2
330
1F
100
AcDbEntity
  8
Capa 01
100
AcDbLine
 10
466.0364899517418
 20
-188.1673915722187
 30
0.0
 11
465.9748615589131
 21
-188.1062957098297
 31
0.0
  0
LINE
  5
1C3
330
1F
100
AcDbEntity
  8
Capa 01
100
AcDbLine
 10
465.9748615589131
 20
-188.1062957098297
 30
0.0
 11
465.9111498553901
 21
-188.0473755771253
 31
0.0
  0
LINE
  5
1C4
330
1F
100
AcDbEntity
  8
Capa 01
100
AcDbLine
 10
465.9111498553901
 20
-188.0473755771253
 30
0.0
 11
465.8454316088133
 21
-187.9907021682763
 31
0.0
  0
LINE
  5
1C5
330
1F
100
AcDbEntity
  8
Capa 01
100
AcDbLine
 10
465.8454316088133
 20
-187.9907021682763
 30
0.0
 11
465.7777860045512
 21
-187.936343770326
 31
0.0
  0
LINE
  5
1C6
330
1F
100
AcDbEntity
  8
Capa 01
100
AcDbLine
 10
465.7777860045512
 20
-187.936343770326
 30
0.0
 11
465.7082945502881
 21
-187.8843658809103
 31
0.0
  0
LINE
  5
1C7
330
1F
100
AcDbEntity
  8
Capa 01
100
AcDbLine
 10
465.7082945502881
 20
-187.8843658809103
 30
0.0
 11
465.6370409778141
 21
-187.8348311293374
 31
0.0
  0
LINE
  5
1C8
330
1F
100
AcDbEntity
  8
Capa 01
100
AcDbLine
 10
465.6370409778141
 20
-187.8348311293374
 30
0.0
 11
465.564111142134
 21
-187.7877992011249
 31
0.0
  0
LINE
  5
1C9
330
1F
100
AcDbEntity
  8
Capa 01
100
AcDbLine
 10
465.564111142134
 20
-187.7877992011249
 30
0.0
 11
465.4895929180197
 21
-187.7433267660831
 31
0.0
  0
LINE
  5
1CA
330
1F
100
AcDbEntity
  8
Capa 01
100
AcDbLine
 10
465.4895929180197
 20
-187.7433267660831
 30
0.0
 11
465.4135760941271
 21
-187.7014674100323
 31
0.0
  0
LINE
  5
1CB
330
1F
100
AcDbEntity
  8
Capa 01
100
AcDbLine
 10
465.4135760941271
 20
-187.7014674100323
 30
0.0
 11
465.3361522648083
 21
-187.6622715702362
 31
0.0
  0
LINE
  5
1CC
330
1F
100
AcDbEntity
  8
Capa 01
100
AcDbLine
 10
465.3361522648083
 20
-187.6622715702362
 30
0.0
 11
465.2574147197473
 21
-187.6257864746291
 31
0.0
  0
LINE
  5
1CD
330
1F
100
AcDbEntity
  8
Capa 01
100
AcDbLine
 10
465.2574147197473
 20
-187.6257864746291
 30
0.0
 11
465.1774583315532
 21
-187.5920560849092
 31
0.0
  0
LINE
  5
1CE
330
1F
100
AcDbEntity
  8
Capa 01
100
AcDbLine
 10
465.1774583315532
 20
-187.5920560849092
 30
0.0
 11
465.0963794414461
 21
-187.5611210435692
 31
0.0
  0
LINE
  5
1CF
330
1F
100
AcDbEntity
  8
Capa 01
100
AcDbLine
 10
465.0963794414461
 20
-187.5611210435692
 30
0.0
 11
465.0142757431737
 21
-187.5330186249243
 31
0.0
  0
LINE
  5
1D0
330
1F
100
AcDbEntity
  8
Capa 01
100
AcDbLine
 10
465.0142757431737
 20
-187.5330186249243
 30
0.0
 11
464.9312461652975
 21
-187.5077826902001
 31
0.0
  0
LINE
  5
1D1
330
1F
100
AcDbEntity
  8
Capa 01
100
AcDbLine
 10
464.9312461652975
 20
-187.5077826902001
 30
0.0
 11
464.8473907519918
 21
-187.4854436467326
 31
0.0
  0
LINE
  5
1D2
330
1F
100
AcDbEntity
  8
Capa 01
100
AcDbLine
 10
464.8473907519918
 20
-187.4854436467326
 30
0.0
 11
464.7628105424985
 21
-187.466028411329
 31
0.0
  0
LINE
  5
1D3
330
1F
100
AcDbEntity
  8
Capa 01
100
AcDbLine
 10
464.7628105424985
 20
-187.466028411329
 30
0.0
 11
464.6776074493823
 21
-187.449560377836
 31
0.0
  0
LINE
  5
1D4
330
1F
100
AcDbEntity
  8
Capa 01
100
AcDbLine
 10
464.6776074493823
 20
-187.449560377836
 30
0.0
 11
464.5918841357341
 21
-187.4360593889511
 31
0.0
  0
LINE
  5
1D5
330
1F
100
AcDbEntity
  8
Capa 01
100
AcDbLine
 10
464.5918841357341
 20
-187.4360593889511
 30
0.0
 11
464.50574389147
 21
-187.4255417123144
 31
0.0
  0
LINE
  5
1D6
330
1F
100
AcDbEntity
  8
Capa 01
100
AcDbLine
 10
464.50574389147
 20
-187.4255417123144
 30
0.0
 11
464.4192905088753
 21
-187.4180200209071
 31
0.0
  0
LINE
  5
1D7
330
1F
100
AcDbEntity
  8
Capa 01
100
AcDbLine
 10
464.4192905088753
 20
-187.4180200209071
 30
0.0
 11
464.3326281575422
 21
-187.4135033777815
 31
0.0
  0
LINE
  5
1D8
330
1F
100
AcDbEntity
  8
Capa 01
100
AcDbLine
 10
464.3326281575422
 20
-187.4135033777815
 30
0.0
 11
464.2458612588542
 21
-187.4119972251408
 31
0.0
  0
LINE
  5
1D9
330
1F
100
AcDbEntity
  8
Capa 01
100
AcDbLine
 10
464.2458612588539
 20
-106.4119972251409
 30
0.0
 11
464.159094360166
 21
-106.4104910725001
 31
0.0
  0
LINE
  5
1DA
330
1F
100
AcDbEntity
  8
Capa 01
100
AcDbLine
 10
464.159094360166
 20
-106.4104910725001
 30
0.0
 11
464.0724320088329
 21
-106.4059744293745
 31
0.0
  0
LINE
  5
1DB
330
1F
100
AcDbEntity
  8
Capa 01
100
AcDbLine
 10
464.0724320088329
 20
-106.4059744293745
 30
0.0
 11
463.9859786262381
 21
-106.3984527379672
 31
0.0
  0
LINE
  5
1DC
330
1F
100
AcDbEntity
  8
Capa 01
100
AcDbLine
 10
463.9859786262381
 20
-106.3984527379672
 30
0.0
 11
463.8998383819741
 21
-106.3879350613306
 31
0.0
  0
LINE
  5
1DD
330
1F
100
AcDbEntity
  8
Capa 01
100
AcDbLine
 10
463.8998383819741
 20
-106.3879350613306
 30
0.0
 11
463.8141150683259
 21
-106.3744340724457
 31
0.0
  0
LINE
  5
1DE
330
1F
100
AcDbEntity
  8
Capa 01
100
AcDbLine
 10
463.8141150683259
 20
-106.3744340724457
 30
0.0
 11
463.7289119752097
 21
-106.3579660389526
 31
0.0
  0
LINE
  5
1DF
330
1F
100
AcDbEntity
  8
Capa 01
100
AcDbLine
 10
463.7289119752097
 20
-106.3579660389526
 30
0.0
 11
463.6443317657163
 21
-106.338550803549
 31
0.0
  0
LINE
  5
1E0
330
1F
100
AcDbEntity
  8
Capa 01
100
AcDbLine
 10
463.6443317657163
 20
-106.338550803549
 30
0.0
 11
463.5604763524107
 21
-106.3162117600815
 31
0.0
  0
LINE
  5
1E1
330
1F
100
AcDbEntity
  8
Capa 01
100
AcDbLine
 10
463.5604763524107
 20
-106.3162117600815
 30
0.0
 11
463.4774467745345
 21
-106.2909758253574
 31
0.0
  0
LINE
  5
1E2
330
1F
100
AcDbEntity
  8
Capa 01
100
AcDbLine
 10
463.4774467745345
 20
-106.2909758253574
 30
0.0
 11
463.3953430762621
 21
-106.2628734067124
 31
0.0
  0
LINE
  5
1E3
330
1F
100
AcDbEntity
  8
Capa 01
100
AcDbLine
 10
463.3953430762621
 20
-106.2628734067124
 30
0.0
 11
463.314264186155
 21
-106.2319383653724
 31
0.0
  0
LINE
  5
1E4
330
1F
100
AcDbEntity
  8
Capa 01
100
AcDbLine
 10
463.314264186155
 20
-106.2319383653724
 30
0.0
 11
463.2343077979609
 21
-106.1982079756526
 31
0.0
  0
LINE
  5
1E5
330
1F
100
AcDbEntity
  8
Capa 01
100
AcDbLine
 10
463.2343077979609
 20
-106.1982079756526
 30
0.0
 11
463.1555702528998
 21
-106.1617228800454
 31
0.0
  0
LINE
  5
1E6
330
1F
100
AcDbEntity
  8
Capa 01
100
AcDbLine
 10
463.1555702528998
 20
-106.1617228800454
 30
0.0
 11
463.0781464235811
 21
-106.1225270402494
 31
0.0
  0
LINE
  5
1E7
330
1F
100
AcDbEntity
  8
Capa 01
100
AcDbLine
 10
463.0781464235811
 20
-106.1225270402494
 30
0.0
 11
463.0021295996885
 21
-106.0806676841986
 31
0.0
  0
LINE
  5
1E8
330
1F
100
AcDbEntity
  8
Capa 01
100
AcDbLine
 10
463.0021295996885
 20
-106.0806676841986
 30
0.0
 11
462.9276113755741
 21
-106.0361952491567
 31
0.0
  0
LINE
  5
1E9
330
1F
100
AcDbEntity
  8
Capa 01
100
AcDbLine
 10
462.9276113755741
 20
-106.0361952491567
 30
0.0
 11
462.8546815398941
 21
-105.9891633209442
 31
0.0
  0
LINE
  5
1EA
330
1F
100
AcDbEntity
  8
Capa 01
100
AcDbLine
 10
462.8546815398941
 20
-105.9891633209442
 30
0.0
 11
462.78342796742
 21
-105.9396285693713
 31
0.0
  0
LINE
  5
1EB
330
1F
100
AcDbEntity
  8
Capa 01
100
AcDbLine
 10
462.78342796742
 20
-105.9396285693713
 30
0.0
 11
462.713936513157
 21
-105.8876506799556
 31
0.0
  0
LINE
  5
1EC
330
1F
100
AcDbEntity
  8
Capa 01
100
AcDbLine
 10
462.713936513157
 20
-105.8876506799556
 30
0.0
 11
462.6462909088949
 21
-105.8332922820054
 31
0.0
  0
LINE
  5
1ED
330
1F
100
AcDbEntity
  8
Capa 01
100
AcDbLine
 10
462.6462909088949
 20
-105.8332922820054
 30
0.0
 11
462.5805726623181
 21
-105.7766188731563
 31
0.0
  0
LINE
  5
1EE
330
1F
100
AcDbEntity
  8
Capa 01
100
AcDbLine
 10
462.5805726623181
 20
-105.7766188731563
 30
0.0
 11
462.5168609587951
 21
-105.7176987404519
 31
0.0
  0
LINE
  5
1EF
330
1F
100
AcDbEntity
  8
Capa 01
100
AcDbLine
 10
462.5168609587951
 20
-105.7176987404519
 30
0.0
 11
462.4552325659664
 21
-105.656602878063
 31
0.0
  0
LINE
  5
1F0
330
1F
100
AcDbEntity
  8
Capa 01
100
AcDbLine
 10
462.4552325659664
 20
-105.656602878063
 30
0.0
 11
462.3957617412451
 21
-105.5934049017451
 31
0.0
  0
LINE
  5
1F1
330
1F
100
AcDbEntity
  8
Capa 01
100
AcDbLine
 10
462.3957617412451
 20
-105.5934049017451
 30
0.0
 11
462.3385201423432
 21
-105.5281809601374
 31
0.0
  0
LINE
  5
1F2
330
1F
100
AcDbEntity
  8
Capa 01
100
AcDbLine
 10
462.3385201423432
 20
-105.5281809601374
 30
0.0
 11
462.2835767409287
 21
-105.4610096430093
 31
0.0
  0
LINE
  5
1F3
330
1F
100
AcDbEntity
  8
Capa 01
100
AcDbLine
 10
462.2835767409287
 20
-105.4610096430093
 30
0.0
 11
462.2309977395211
 21
-105.3919718865664
 31
0.0
  0
LINE
  5
1F4
330
1F
100
AcDbEntity
  8
Capa 01
100
AcDbLine
 10
462.2309977395211
 20
-105.3919718865664
 30
0.0
 11
462.1808464917218
 21
-105.3211508759277
 31
0.0
  0
LINE
  5
1F5
330
1F
100
AcDbEntity
  8
Capa 01
100
AcDbLine
 10
462.1808464917218
 20
-105.3211508759277
 30
0.0
 11
462.1331834258782
 21
-105.2486319448953
 31
0.0
  0
LINE
  5
1F6
330
1F
100
AcDbEntity
  8
Capa 01
100
AcDbLine
 10
462.1331834258782
 20
-105.2486319448953
 30
0.0
 11
462.0880659722724
 21
-105.1745024731325
 31
0.0
  0
LINE
  5
1F7
330
1F
100
AcDbEntity
  8
Capa 01
100
AcDbLine
 10
462.0880659722724
 20
-105.1745024731325
 30
0.0
 11
462.0455484939218
 21
-105.0988517808791
 31
0.0
  0
LINE
  5
1F8
330
1F
100
AcDbEntity
  8
Capa 01
100
AcDbLine
 10
462.0455484939218
 20
-105.0988517808791
 30
0.0
 11
462.0056822210763
 21
-105.0217710213271
 31
0.0
  0
LINE
  5
1F9
330
1F
100
AcDbEntity
  8
Capa 01
100
AcDbLine
 10
462.0056822210763
 20
-105.0217710213271
 30
0.0
 11
461.9685151894896
 21
-104.9433530707881
 31
0.0
  0
LINE
  5
1FA
330
1F
100
AcDbEntity
  8
Capa 01
100
AcDbLine
 10
461.9685151894896
 20
-104.9433530707881
 30
0.0
 11
461.9340921825399
 21
-104.8636924167848
 31
0.0
  0
LINE
  5
1FB
330
1F
100
AcDbEntity
  8
Capa 01
100
AcDbLine
 10
461.9340921825399
 20
-104.8636924167848
 30
0.0
 11
461.9024546772695
 21
-104.7828850442005
 31
0.0
  0
LINE
  5
1FC
330
1F
100
AcDbEntity
  8
Capa 01
100
AcDbLine
 10
461.9024546772695
 20
-104.7828850442005
 30
0.0
 11
461.8736407944079
 21
-104.7010283196255
 31
0.0
  0
LINE
  5
1FD
330
1F
100
AcDbEntity
  8
Capa 01
100
AcDbLine
 10
461.8736407944079
 20
-104.7010283196255
 30
0.0
 11
461.84768525244
 21
-104.6182208740373
 31
0.0
  0
LINE
  5
1FE
330
1F
100
AcDbEntity
  8
Capa 01
100
AcDbLine
 10
461.84768525244
 20
-104.6182208740373
 30
0.0
 11
461.8246193257721
 21
-104.534562483958
 31
0.0
  0
LINE
  5
1FF
330
1F
100
AcDbEntity
  8
Capa 01
100
AcDbLine
 10
461.8246193257721
 20
-104.534562483958
 30
0.0
 11
461.8044708070493
 21
-104.4501539512319
 31
0.0
  0
LINE
  5
200
330
1F
100
AcDbEntity
  8
Capa 01
100
AcDbLine
 10
461.8044708070493
 20
-104.4501539512319
 30
0.0
 11
461.7872639736673
 21
-104.3650969815664
 31
0.0
  0
LINE
  5
201
330
1F
100
AcDbEntity
  8
Capa 01
100
AcDbLine
 10
461.7872639736673
 20
-104.3650969815664
 30
0.0
 11
461.7730195585202
 21
-104.2794940619853
 31
0.0
  0
LINE
  5
202
330
1F
100
AcDbEntity
  8
Capa 01
100
AcDbLine
 10
461.7730195585202
 20
-104.2794940619853
 30
0.0
 11
461.7617547250188
 21
-104.1934483373391
 31
0.0
  0
LINE
  5
203
330
1F
100
AcDbEntity
  8
Capa 01
100
AcDbLine
 10
461.7617547250188
 20
-104.1934483373391
 30
0.0
 11
461.7534830464101
 21
-104.1070634860242
 31
0.0
  0
LINE
  5
204
330
1F
100
AcDbEntity
  8
Capa 01
100
AcDbLine
 10
461.7534830464101
 20
-104.1070634860242
 30
0.0
 11
461.7482144894224
 21
-104.0204435950581
 31
0.0
  0
LINE
  5
205
330
1F
100
AcDbEntity
  8
Capa 01
100
AcDbLine
 10
461.7482144894224
 20
-104.0204435950581
 30
0.0
 11
461.7459554022567
 21
-103.9336930346629
 31
0.0
  0
LINE
  5
206
330
1F
100
AcDbEntity
  8
Capa 01
100
AcDbLine
 10
461.7459554022567
 20
-103.9336930346629
 30
0.0
 11
461.746708506937
 21
-103.8469163325071
 31
0.0
  0
LINE
  5
207
330
1F
100
AcDbEntity
  8
Capa 01
100
AcDbLine
 10
461.746708506937
 20
-103.8469163325071
 30
0.0
 11
461.7504728960308
 21
-103.7602180477579
 31
0.0
  0
LINE
  5
208
330
1F
100
AcDbEntity
  8
Capa 01
100
AcDbLine
 10
461.7504728960308
 20
-103.7602180477579
 30
0.0
 11
461.7572440337426
 21
-103.6737026450957
 31
0.0
  0
LINE
  5
209
330
1F
100
AcDbEntity
  8
Capa 01
100
AcDbLine
 10
461.7572440337426
 20
-103.6737026450957
 30
0.0
 11
461.7670137613786
 21
-103.5874743688424
 31
0.0
  0
LINE
  5
20A
330
1F
100
AcDbEntity
  8
Capa 01
100
AcDbLine
 10
461.7670137613786
 20
-103.5874743688424
 30
0.0
 11
461.7797703071781
 21
-103.5016371173547
 31
0.0
  0
LINE
  5
20B
330
1F
100
AcDbEntity
  8
Capa 01
100
AcDbLine
 10
461.7797703071781
 20
-103.5016371173547
 30
0.0
 11
461.7954983004969
 21
-103.4162943178349
 31
0.0
  0
LINE
  5
20C
330
1F
100
AcDbEntity
  8
Capa 01
100
AcDbLine
 10
461.7954983004969
 20
-103.4162943178349
 30
0.0
 11
461.8141787903281
 21
-103.3315488017095
 31
0.0
  0
LINE
  5
20D
330
1F
100
AcDbEntity
  8
Capa 01
100
AcDbLine
 10
461.8141787903281
 20
-103.3315488017095
 30
0.0
 11
461.8357892681364
 21
-103.2475026807247
 31
0.0
  0
LINE
  5
20E
330
1F
100
AcDbEntity
  8
Capa 01
100
AcDbLine
 10
461.8357892681364
 20
-103.2475026807247
 30
0.0
 11
461.8603036949793
 21
-103.1642572239101
 31
0.0
  0
LINE
  5
20F
330
1F
100
AcDbEntity
  8
Capa 01
100
AcDbLine
 10
461.8603036949793
 20
-103.1642572239101
 30
0.0
 11
461.8876925328818
 21
-103.0819127355575
 31
0.0
  0
LINE
  5
210
330
1F
100
AcDbEntity
  8
Capa 01
100
AcDbLine
 10
461.8876925328818
 20
-103.0819127355575
 30
0.0
 11
461.9179227804274
 21
-103.0005684343617
 31
0.0
  0
LINE
  5
211
330
1F
100
AcDbEntity
  8
Capa 01
100
AcDbLine
 10
461.9179227804274
 20
-103.0005684343617
 30
0.0
 11
461.9509580125224
 21
-102.9203223338699
 31
0.0
  0
LINE
  5
212
330
1F
100
AcDbEntity
  8
Capa 01
100
AcDbLine
 10
461.9509580125224
 20
-102.9203223338699
 30
0.0
 11
461.9867584242853
 21
-102.8412711243832
 31
0.0
  0
LINE
  5
213
330
1F
100
AcDbEntity
  8
Capa 01
100
AcDbLine
 10
461.9867584242853
 20
-102.8412711243832
 30
0.0
 11
462.0252808790081
 21
-102.7635100564518
 31
0.0
  0
LINE
  5
214
330
1F
100
AcDbEntity
  8
Capa 01
100
AcDbLine
 10
462.0252808790081
 20
-102.7635100564518
 30
0.0
 11
462.0664789601333
 21
-102.6871328261059
 31
0.0
  0
LINE
  5
215
330
1F
100
AcDbEntity
  8
Capa 01
100
AcDbLine
 10
462.0664789601333
 20
-102.6871328261059
 30
0.0
 11
462.1103030271821
 21
-102.6122314619594
 31
0.0
  0
LINE
  5
216
330
1F
100
AcDbEntity
  8
Capa 01
100
AcDbLine
 10
462.1103030271821
 20
-102.6122314619594
 30
0.0
 11
462.1567002755669
 21
-102.5388962143222
 31
0.0
  0
LINE
  5
217
330
1F
100
AcDbEntity
  8
Capa 01
100
AcDbLine
 10
462.1567002755669
 20
-102.5388962143222
 30
0.0
 11
462.2056148002173
 21
-102.4672154464557
 31
0.0
  0
LINE
  5
218
330
1F
100
AcDbEntity
  8
Capa 01
100
AcDbLine
 10
462.2056148002173
 20
-102.4672154464557
 30
0.0
 11
462.2569876629408
 21
-102.3972755281022
 31
0.0
  0
LINE
  5
219
330
1F
100
AcDbEntity
  8
Capa 01
100
AcDbLine
 10
462.2569876629408
 20
-102.3972755281022
 30
0.0
 11
462.3107569634392
 21
-102.3291607314159
 31
0.0
  0
LINE
  5
21A
330
1F
100
AcDbEntity
  8
Capa 01
100
AcDbLine
 10
462.3107569634392
 20
-102.3291607314159
 30
0.0
 11
462.3668579138933
 21
-102.2629531294215
 31
0.0
  0
LINE
  5
21B
330
1F
100
AcDbEntity
  8
Capa 01
100
AcDbLine
 10
462.3668579138933
 20
-102.2629531294215
 30
0.0
 11
462.4252229170274
 21
-102.1987324971227
 31
0.0
  0
LINE
  5
21C
330
1F
100
AcDbEntity
  8
Capa 01
100
AcDbLine
 10
462.4252229170274
 20
-102.1987324971227
 30
0.0
 11
462.4857816475587
 21
-102.1365762153793
 31
0.0
  0
LINE
  5
21D
330
1F
100
AcDbEntity
  8
Capa 01
100
AcDbLine
 10
462.4857816475587
 20
-102.1365762153793
 30
0.0
 11
462.5484611369334
 21
-102.0765591776699
 31
0.0
  0
LINE
  5
21E
330
1F
100
AcDbEntity
  8
Capa 01
100
AcDbLine
 10
462.5484611369334
 20
-102.0765591776699
 30
0.0
 11
462.613185861249
 21
-102.0187536998501
 31
0.0
  0
LINE
  5
21F
330
1F
100
AcDbEntity
  8
Capa 01
100
AcDbLine
 10
462.613185861249
 20
-102.0187536998501
 30
0.0
 11
462.6798778322539
 21
-101.9632294330184
 31
0.0
  0
LINE
  5
220
330
1F
100
AcDbEntity
  8
Capa 01
100
AcDbLine
 10
462.6798778322539
 20
-101.9632294330184
 30
0.0
 11
462.7484566913174
 21
-101.9100532795918
 31
0.0
  0
LINE
  5
221
330
1F
100
AcDbEntity
  8
Capa 01
100
AcDbLine
 10
462.7484566913174
 20
-101.9100532795918
 30
0.0
 11
462.8188398062558
 21
-101.8592893126934
 31
0.0
  0
LINE
  5
222
330
1F
100
AcDbEntity
  8
Capa 01
100
AcDbLine
 10
462.8188398062558
 20
-101.8592893126934
 30
0.0
 11
462.8909423708976
 21
-101.8109986989493
 31
0.0
  0
LINE
  5
223
330
1F
100
AcDbEntity
  8
Capa 01
100
AcDbLine
 10
462.8909423708976
 20
-101.8109986989493
 30
0.0
 11
462.9646775072683
 21
-101.765239624788
 31
0.0
  0
LINE
  5
224
330
1F
100
AcDbEntity
  8
Capa 01
100
AcDbLine
 10
462.9646775072683
 20
-101.765239624788
 30
0.0
 11
463.0399563702715
 21
-101.7220672263297
 31
0.0
  0
LINE
  5
225
330
1F
100
AcDbEntity
  8
Capa 01
100
AcDbLine
 10
463.0399563702715
 20
-101.7220672263297
 30
0.0
 11
463.1166882547407
 21
-101.681533522952
 31
0.0
  0
LINE
  5
226
330
1F
100
AcDbEntity
  8
Capa 01
100
AcDbLine
 10
463.1166882547407
 20
-101.681533522952
 30
0.0
 11
463.1947807047315
 21
-101.6436873546105
 31
0.0
  0
LINE
  5
227
330
1F
100
AcDbEntity
  8
Capa 01
100
AcDbLine
 10
463.1947807047315
 20
-101.6436873546105
 30
0.0
 11
463.2741396249241
 21
-101.6085743229901
 31
0.0
  0
LINE
  5
228
330
1F
100
AcDbEntity
  8
Capa 01
100
AcDbLine
 10
463.2741396249241
 20
-101.6085743229901
 30
0.0
 11
463.3546693940007
 21
-101.5762367365592
 31
0.0
  0
LINE
  5
229
330
1F
100
AcDbEntity
  8
Capa 01
100
AcDbLine
 10
463.3546693940007
 20
-101.5762367365592
 30
0.0
 11
463.4362729798617
 21
-101.5467135595907
 31
0.0
  0
LINE
  5
22A
330
1F
100
AcDbEntity
  8
Capa 01
100
AcDbLine
 10
463.4362729798617
 20
-101.5467135595907
 30
0.0
 11
463.5188520565423
 21
-101.5200403652134
 31
0.0
  0
LINE
  5
22B
330
1F
100
AcDbEntity
  8
Capa 01
100
AcDbLine
 10
463.5188520565423
 20
-101.5200403652134
 30
0.0
 11
463.6023071226868
 21
-101.4962492925489
 31
0.0
  0
LINE
  5
22C
330
1F
100
AcDbEntity
  8
Capa 01
100
AcDbLine
 10
463.6023071226868
 20
-101.4962492925489
 30
0.0
 11
463.6865376214406
 21
-101.4753690079869
 31
0.0
  0
LINE
  5
22D
330
1F
100
AcDbEntity
  8
Capa 01
100
AcDbLine
 10
463.6865376214406
 20
-101.4753690079869
 30
0.0
 11
463.7714420616132
 21
-101.457424670644
 31
0.0
  0
LINE
  5
22E
330
1F
100
AcDbEntity
  8
Capa 01
100
AcDbLine
 10
463.7714420616132
 20
-101.457424670644
 30
0.0
 11
463.8569181399672
 21
-101.4424379020489
 31
0.0
  0
LINE
  5
22F
330
1F
100
AcDbEntity
  8
Capa 01
100
AcDbLine
 10
463.8569181399672
 20
-101.4424379020489
 30
0.0
 11
463.9428628644857
 21
-101.4304267600905
 31
0.0
  0
LINE
  5
230
330
1F
100
AcDbEntity
  8
Capa 01
100
AcDbLine
 10
463.9428628644857
 20
-101.4304267600905
 30
0.0
 11
464.0291726784696
 21
-101.4214057172594
 31
0.0
  0
LINE
  5
231
330
1F
100
AcDbEntity
  8
Capa 01
100
AcDbLine
 10
464.0291726784696
 20
-101.4214057172594
 30
0.0
 11
464.1157435853156
 21
-101.4153856432097
 31
0.0
  0
LINE
  5
232
330
1F
100
AcDbEntity
  8
Capa 01
100
AcDbLine
 10
464.1157435853156
 20
-101.4153856432097
 30
0.0
 11
464.2024712738237
 21
-101.4123737916615
 31
0.0
  0
LINE
  5
233
330
1F
100
AcDbEntity
  8
Capa 01
100
AcDbLine
 10
464.2024712738237
 20
-101.4123737916615
 30
0.0
 11
464.2892512438842
 21
-101.4123737916615
 31
0.0
  0
LINE
  5
234
330
1F
100
AcDbEntity
  8
Capa 01
100
AcDbLine
 10
464.2892512438842
 20
-101.4123737916615
 30
0.0
 11
464.3759789323923
 21
-101.4153856432097
 31
0.0
  0
LINE
  5
235
330
1F
100
AcDbEntity
  8
Capa 01
100
AcDbLine
 10
464.3759789323923
 20
-101.4153856432097
 30
0.0
 11
464.4625498392383
 21
-101.4214057172594
 31
0.0
  0
LINE
  5
236
330
1F
100
AcDbEntity
  8
Capa 01
100
AcDbLine
 10
464.4625498392383
 20
-101.4214057172594
 30
0.0
 11
464.5488596532222
 21
-101.4304267600905
 31
0.0
  0
LINE
  5
237
330
1F
100
AcDbEntity
  8
Capa 01
100
AcDbLine
 10
464.5488596532222
 20
-101.4304267600905
 30
0.0
 11
464.6348043777407
 21
-101.4424379020489
 31
0.0
  0
LINE
  5
238
330
1F
100
AcDbEntity
  8
Capa 01
100
AcDbLine
 10
464.6348043777407
 20
-101.4424379020489
 30
0.0
 11
464.7202804560947
 21
-101.457424670644
 31
0.0
  0
LINE
  5
239
330
1F
100
AcDbEntity
  8
Capa 01
100
AcDbLine
 10
464.7202804560947
 20
-101.457424670644
 30
0.0
 11
464.8051848962673
 21
-101.4753690079869
 31
0.0
  0
LINE
  5
23A
330
1F
100
AcDbEntity
  8
Capa 01
100
AcDbLine
 10
464.8051848962673
 20
-101.4753690079869
 30
0.0
 11
464.8894153950211
 21
-101.4962492925489
 31
0.0
  0
LINE
  5
23B
330
1F
100
AcDbEntity
  8
Capa 01
100
AcDbLine
 10
464.8894153950211
 20
-101.4962492925489
 30
0.0
 11
464.9728704611656
 21
-101.5200403652134
 31
0.0
  0
LINE
  5
23C
330
1F
100
AcDbEntity
  8
Capa 01
100
AcDbLine
 10
464.9728704611656
 20
-101.5200403652134
 30
0.0
 11
465.0554495378461
 21
-101.5467135595907
 31
0.0
  0
LINE
  5
23D
330
1F
100
AcDbEntity
  8
Capa 01
100
AcDbLine
 10
465.0554495378461
 20
-101.5467135595907
 30
0.0
 11
465.1370531237072
 21
-101.5762367365592
 31
0.0
  0
LINE
  5
23E
330
1F
100
AcDbEntity
  8
Capa 01
100
AcDbLine
 10
465.1370531237072
 20
-101.5762367365592
 30
0.0
 11
465.2175828927838
 21
-101.6085743229901
 31
0.0
  0
LINE
  5
23F
330
1F
100
AcDbEntity
  8
Capa 01
100
AcDbLine
 10
465.2175828927838
 20
-101.6085743229901
 30
0.0
 11
465.2969418129764
 21
-101.6436873546104
 31
0.0
  0
LINE
  5
240
330
1F
100
AcDbEntity
  8
Capa 01
100
AcDbLine
 10
465.2969418129764
 20
-101.6436873546104
 30
0.0
 11
465.3750342629672
 21
-101.681533522952
 31
0.0
  0
LINE
  5
241
330
1F
100
AcDbEntity
  8
Capa 01
100
AcDbLine
 10
465.3750342629672
 20
-101.681533522952
 30
0.0
 11
465.4517661474364
 21
-101.7220672263297
 31
0.0
  0
LINE
  5
242
330
1F
100
AcDbEntity
  8
Capa 01
100
AcDbLine
 10
465.4517661474364
 20
-101.7220672263297
 30
0.0
 11
465.5270450104396
 21
-101.765239624788
 31
0.0
  0
LINE
  5
243
330
1F
100
AcDbEntity
  8
Capa 01
100
AcDbLine
 10
465.5270450104396
 20
-101.765239624788
 30
0.0
 11
465.6007801468103
 21
-101.8109986989493
 31
0.0
  0
LINE
  5
244
330
1F
100
AcDbEntity
  8
Capa 01
100
AcDbLine
 10
465.6007801468103
 20
-101.8109986989493
 30
0.0
 11
465.6728827114521
 21
-101.8592893126933
 31
0.0
  0
LINE
  5
245
330
1F
100
AcDbEntity
  8
Capa 01
100
AcDbLine
 10
465.6728827114521
 20
-101.8592893126933
 30
0.0
 11
465.7432658263905
 21
-101.9100532795918
 31
0.0
  0
LINE
  5
246
330
1F
100
AcDbEntity
  8
Capa 01
100
AcDbLine
 10
465.7432658263905
 20
-101.9100532795918
 30
0.0
 11
465.811844685454
 21
-101.9632294330184
 31
0.0
  0
LINE
  5
247
330
1F
100
AcDbEntity
  8
Capa 01
100
AcDbLine
 10
465.811844685454
 20
-101.9632294330184
 30
0.0
 11
465.8785366564589
 21
-102.0187536998501
 31
0.0
  0
LINE
  5
248
330
1F
100
AcDbEntity
  8
Capa 01
100
AcDbLine
 10
465.8785366564589
 20
-102.0187536998501
 30
0.0
 11
465.9432613807745
 21
-102.0765591776698
 31
0.0
  0
LINE
  5
249
330
1F
100
AcDbEntity
  8
Capa 01
100
AcDbLine
 10
465.9432613807745
 20
-102.0765591776698
 30
0.0
 11
466.0059408701492
 21
-102.1365762153793
 31
0.0
  0
LINE
  5
24A
330
1F
100
AcDbEntity
  8
Capa 01
100
AcDbLine
 10
466.0059408701492
 20
-102.1365762153793
 30
0.0
 11
466.0664996006805
 21
-102.1987324971226
 31
0.0
  0
LINE
  5
24B
330
1F
100
AcDbEntity
  8
Capa 01
100
AcDbLine
 10
466.0664996006805
 20
-102.1987324971226
 30
0.0
 11
466.1248646038146
 21
-102.2629531294215
 31
0.0
  0
LINE
  5
24C
330
1F
100
AcDbEntity
  8
Capa 01
100
AcDbLine
 10
466.1248646038146
 20
-102.2629531294215
 30
0.0
 11
466.1809655542687
 21
-102.3291607314159
 31
0.0
  0
LINE
  5
24D
330
1F
100
AcDbEntity
  8
Capa 01
100
AcDbLine
 10
466.1809655542687
 20
-102.3291607314159
 30
0.0
 11
466.2347348547671
 21
-102.3972755281022
 31
0.0
  0
LINE
  5
24E
330
1F
100
AcDbEntity
  8
Capa 01
100
AcDbLine
 10
466.2347348547671
 20
-102.3972755281022
 30
0.0
 11
466.2861077174906
 21
-102.4672154464557
 31
0.0
  0
LINE
  5
24F
330
1F
100
AcDbEntity
  8
Capa 01
100
AcDbLine
 10
466.2861077174906
 20
-102.4672154464557
 30
0.0
 11
466.335022242141
 21
-102.5388962143222
 31
0.0
  0
LINE
  5
250
330
1F
100
AcDbEntity
  8
Capa 01
100
AcDbLine
 10
466.335022242141
 20
-102.5388962143222
 30
0.0
 11
466.3814194905258
 21
-102.6122314619594
 31
0.0
  0
LINE
  5
251
330
1F
100
AcDbEntity
  8
Capa 01
100
AcDbLine
 10
466.3814194905258
 20
-102.6122314619594
 30
0.0
 11
466.4252435575746
 21
-102.6871328261059
 31
0.0
  0
LINE
  5
252
330
1F
100
AcDbEntity
  8
Capa 01
100
AcDbLine
 10
466.4252435575746
 20
-102.6871328261059
 30
0.0
 11
466.4664416386998
 21
-102.7635100564517
 31
0.0
  0
LINE
  5
253
330
1F
100
AcDbEntity
  8
Capa 01
100
AcDbLine
 10
466.4664416386998
 20
-102.7635100564517
 30
0.0
 11
466.5049640934226
 21
-102.8412711243831
 31
0.0
  0
LINE
  5
254
330
1F
100
AcDbEntity
  8
Capa 01
100
AcDbLine
 10
466.5049640934226
 20
-102.8412711243831
 30
0.0
 11
466.5407645051855
 21
-102.9203223338699
 31
0.0
  0
LINE
  5
255
330
1F
100
AcDbEntity
  8
Capa 01
100
AcDbLine
 10
466.5407645051855
 20
-102.9203223338699
 30
0.0
 11
466.5737997372805
 21
-103.0005684343616
 31
0.0
  0
LINE
  5
256
330
1F
100
AcDbEntity
  8
Capa 01
100
AcDbLine
 10
466.5737997372805
 20
-103.0005684343616
 30
0.0
 11
466.6040299848261
 21
-103.0819127355574
 31
0.0
  0
LINE
  5
257
330
1F
100
AcDbEntity
  8
Capa 01
100
AcDbLine
 10
466.6040299848261
 20
-103.0819127355574
 30
0.0
 11
466.6314188227286
 21
-103.16425722391
 31
0.0
  0
LINE
  5
258
330
1F
100
AcDbEntity
  8
Capa 01
100
AcDbLine
 10
466.6314188227286
 20
-103.16425722391
 30
0.0
 11
466.6559332495715
 21
-103.2475026807246
 31
0.0
  0
LINE
  5
259
330
1F
100
AcDbEntity
  8
Capa 01
100
AcDbLine
 10
466.6559332495715
 20
-103.2475026807246
 30
0.0
 11
466.6775437273798
 21
-103.3315488017095
 31
0.0
  0
LINE
  5
25A
330
1F
100
AcDbEntity
  8
Capa 01
100
AcDbLine
 10
466.6775437273798
 20
-103.3315488017095
 30
0.0
 11
466.696224217211
 21
-103.4162943178349
 31
0.0
  0
LINE
  5
25B
330
1F
100
AcDbEntity
  8
Capa 01
100
AcDbLine
 10
466.696224217211
 20
-103.4162943178349
 30
0.0
 11
466.7119522105298
 21
-103.5016371173546
 31
0.0
  0
LINE
  5
25C
330
1F
100
AcDbEntity
  8
Capa 01
100
AcDbLine
 10
466.7119522105298
 20
-103.5016371173546
 30
0.0
 11
466.7247087563293
 21
-103.5874743688424
 31
0.0
  0
LINE
  5
25D
330
1F
100
AcDbEntity
  8
Capa 01
100
AcDbLine
 10
466.7247087563293
 20
-103.5874743688424
 30
0.0
 11
466.7344784839653
 21
-103.6737026450957
 31
0.0
  0
LINE
  5
25E
330
1F
100
AcDbEntity
  8
Capa 01
100
AcDbLine
 10
466.7344784839653
 20
-103.6737026450957
 30
0.0
 11
466.7412496216771
 21
-103.7602180477579
 31
0.0
  0
LINE
  5
25F
330
1F
100
AcDbEntity
  8
Capa 01
100
AcDbLine
 10
466.7412496216771
 20
-103.7602180477579
 30
0.0
 11
466.7450140107709
 21
-103.846916332507
 31
0.0
  0
LINE
  5
260
330
1F
100
AcDbEntity
  8
Capa 01
100
AcDbLine
 10
466.7450140107709
 20
-103.846916332507
 30
0.0
 11
466.7457671154512
 21
-103.9336930346629
 31
0.0
  0
LINE
  5
261
330
1F
100
AcDbEntity
  8
Capa 01
100
AcDbLine
 10
466.7457671154512
 20
-103.9336930346629
 30
0.0
 11
466.7435080282855
 21
-104.0204435950581
 31
0.0
  0
LINE
  5
262
330
1F
100
AcDbEntity
  8
Capa 01
100
AcDbLine
 10
466.7435080282855
 20
-104.0204435950581
 30
0.0
 11
466.7382394712978
 21
-104.1070634860241
 31
0.0
  0
LINE
  5
263
330
1F
100
AcDbEntity
  8
Capa 01
100
AcDbLine
 10
466.7382394712978
 20
-104.1070634860241
 30
0.0
 11
466.7299677926891
 21
-104.193448337339
 31
0.0
  0
LINE
  5
264
330
1F
100
AcDbEntity
  8
Capa 01
100
AcDbLine
 10
466.7299677926891
 20
-104.193448337339
 30
0.0
 11
466.7187029591877
 21
-104.2794940619852
 31
0.0
  0
LINE
  5
265
330
1F
100
AcDbEntity
  8
Capa 01
100
AcDbLine
 10
466.7187029591877
 20
-104.2794940619852
 30
0.0
 11
466.7044585440406
 21
-104.3650969815664
 31
0.0
  0
LINE
  5
266
330
1F
100
AcDbEntity
  8
Capa 01
100
AcDbLine
 10
466.7044585440406
 20
-104.3650969815664
 30
0.0
 11
466.6872517106586
 21
-104.4501539512319
 31
0.0
  0
LINE
  5
267
330
1F
100
AcDbEntity
  8
Capa 01
100
AcDbLine
 10
466.6872517106586
 20
-104.4501539512319
 30
0.0
 11
466.6671031919358
 21
-104.534562483958
 31
0.0
  0
LINE
  5
268
330
1F
100
AcDbEntity
  8
Capa 01
100
AcDbLine
 10
466.6671031919358
 20
-104.534562483958
 30
0.0
 11
466.6440372652679
 21
-104.6182208740372
 31
0.0
  0
LINE
  5
269
330
1F
100
AcDbEntity
  8
Capa 01
100
AcDbLine
 10
466.6440372652679
 20
-104.6182208740372
 30
0.0
 11
466.6180817233
 21
-104.7010283196255
 31
0.0
  0
LINE
  5
26A
330
1F
100
AcDbEntity
  8
Capa 01
100
AcDbLine
 10
466.6180817233
 20
-104.7010283196255
 30
0.0
 11
466.5892678404384
 21
-104.7828850442005
 31
0.0
  0
LINE
  5
26B
330
1F
100
AcDbEntity
  8
Capa 01
100
AcDbLine
 10
466.5892678404384
 20
-104.7828850442005
 30
0.0
 11
466.557630335168
 21
-104.8636924167847
 31
0.0
  0
LINE
  5
26C
330
1F
100
AcDbEntity
  8
Capa 01
100
AcDbLine
 10
466.557630335168
 20
-104.8636924167847
 30
0.0
 11
466.5232073282183
 21
-104.9433530707881
 31
0.0
  0
LINE
  5
26D
330
1F
100
AcDbEntity
  8
Capa 01
100
AcDbLine
 10
466.5232073282183
 20
-104.9433530707881
 30
0.0
 11
466.4860402966316
 21
-105.0217710213271
 31
0.0
  0
LINE
  5
26E
330
1F
100
AcDbEntity
  8
Capa 01
100
AcDbLine
 10
466.4860402966316
 20
-105.0217710213271
 30
0.0
 11
466.4461740237861
 21
-105.0988517808791
 31
0.0
  0
LINE
  5
26F
330
1F
100
AcDbEntity
  8
Capa 01
100
AcDbLine
 10
466.4461740237861
 20
-105.0988517808791
 30
0.0
 11
466.4036565454355
 21
-105.1745024731324
 31
0.0
  0
LINE
  5
270
330
1F
100
AcDbEntity
  8
Capa 01
100
AcDbLine
 10
466.4036565454355
 20
-105.1745024731324
 30
0.0
 11
466.3585390918297
 21
-105.2486319448952
 31
0.0
  0
LINE
  5
271
330
1F
100
AcDbEntity
  8
Capa 01
100
AcDbLine
 10
466.3585390918297
 20
-105.2486319448952
 30
0.0
 11
466.3108760259861
 21
-105.3211508759277
 31
0.0
  0
LINE
  5
272
330
1F
100
AcDbEntity
  8
Capa 01
100
AcDbLine
 10
466.3108760259861
 20
-105.3211508759277
 30
0.0
 11
466.2607247781868
 21
-105.3919718865663
 31
0.0
  0
LINE
  5
273
330
1F
100
AcDbEntity
  8
Capa 01
100
AcDbLine
 10
466.2607247781868
 20
-105.3919718865663
 30
0.0
 11
466.2081457767792
 21
-105.4610096430093
 31
0.0
  0
LINE
  5
274
330
1F
100
AcDbEntity
  8
Capa 01
100
AcDbLine
 10
466.2081457767792
 20
-105.4610096430093
 30
0.0
 11
466.1532023753647
 21
-105.5281809601373
 31
0.0
  0
LINE
  5
275
330
1F
100
AcDbEntity
  8
Capa 01
100
AcDbLine
 10
466.1532023753647
 20
-105.5281809601373
 30
0.0
 11
466.0959607764628
 21
-105.5934049017451
 31
0.0
  0
LINE
  5
276
330
1F
100
AcDbEntity
  8
Capa 01
100
AcDbLine
 10
466.0959607764628
 20
-105.5934049017451
 30
0.0
 11
466.0364899517415
 21
-105.6566028780629
 31
0.0
  0
LINE
  5
277
330
1F
100
AcDbEntity
  8
Capa 01
100
AcDbLine
 10
466.0364899517415
 20
-105.6566028780629
 30
0.0
 11
465.9748615589128
 21
-105.7176987404519
 31
0.0
  0
LINE
  5
278
330
1F
100
AcDbEntity
  8
Capa 01
100
AcDbLine
 10
465.9748615589128
 20
-105.7176987404519
 30
0.0
 11
465.9111498553898
 21
-105.7766188731563
 31
0.0
  0
LINE
  5
279
330
1F
100
AcDbEntity
  8
Capa 01
100
AcDbLine
 10
465.9111498553898
 20
-105.7766188731563
 30
0.0
 11
465.845431608813
 21
-105.8332922820053
 31
0.0
  0
LINE
  5
27A
330
1F
100
AcDbEntity
  8
Capa 01
100
AcDbLine
 10
465.845431608813
 20
-105.8332922820053
 30
0.0
 11
465.7777860045509
 21
-105.8876506799556
 31
0.0
  0
LINE
  5
27B
330
1F
100
AcDbEntity
  8
Capa 01
100
AcDbLine
 10
465.7777860045509
 20
-105.8876506799556
 30
0.0
 11
465.7082945502879
 21
-105.9396285693713
 31
0.0
  0
LINE
  5
27C
330
1F
100
AcDbEntity
  8
Capa 01
100
AcDbLine
 10
465.7082945502879
 20
-105.9396285693713
 30
0.0
 11
465.6370409778138
 21
-105.9891633209442
 31
0.0
  0
LINE
  5
27D
330
1F
100
AcDbEntity
  8
Capa 01
100
AcDbLine
 10
465.6370409778138
 20
-105.9891633209442
 30
0.0
 11
465.5641111421338
 21
-106.0361952491567
 31
0.0
  0
LINE
  5
27E
330
1F
100
AcDbEntity
  8
Capa 01
100
AcDbLine
 10
465.5641111421338
 20
-106.0361952491567
 30
0.0
 11
465.4895929180194
 21
-106.0806676841985
 31
0.0
  0
LINE
  5
27F
330
1F
100
AcDbEntity
  8
Capa 01
100
AcDbLine
 10
465.4895929180194
 20
-106.0806676841985
 30
0.0
 11
465.4135760941268
 21
-106.1225270402493
 31
0.0
  0
LINE
  5
280
330
1F
100
AcDbEntity
  8
Capa 01
100
AcDbLine
 10
465.4135760941268
 20
-106.1225270402493
 30
0.0
 11
465.336152264808
 21
-106.1617228800454
 31
0.0
  0
LINE
  5
281
330
1F
100
AcDbEntity
  8
Capa 01
100
AcDbLine
 10
465.336152264808
 20
-106.1617228800454
 30
0.0
 11
465.257414719747
 21
-106.1982079756525
 31
0.0
  0
LINE
  5
282
330
1F
100
AcDbEntity
  8
Capa 01
100
AcDbLine
 10
465.257414719747
 20
-106.1982079756525
 30
0.0
 11
465.1774583315529
 21
-106.2319383653724
 31
0.0
  0
LINE
  5
283
330
1F
100
AcDbEntity
  8
Capa 01
100
AcDbLine
 10
465.1774583315529
 20
-106.2319383653724
 30
0.0
 11
465.0963794414458
 21
-106.2628734067124
 31
0.0
  0
LINE
  5
284
330
1F
100
AcDbEntity
  8
Capa 01
100
AcDbLine
 10
465.0963794414458
 20
-106.2628734067124
 30
0.0
 11
465.0142757431734
 21
-106.2909758253574
 31
0.0
  0
LINE
  5
285
330
1F
100
AcDbEntity
  8
Capa 01
100
AcDbLine
 10
465.0142757431734
 20
-106.2909758253574
 30
0.0
 11
464.9312461652972
 21
-106.3162117600815
 31
0.0
  0
LINE
  5
286
330
1F
100
AcDbEntity
  8
Capa 01
100
AcDbLine
 10
464.9312461652972
 20
-106.3162117600815
 30
0.0
 11
464.8473907519916
 21
-106.338550803549
 31
0.0
  0
LINE
  5
287
330
1F
100
AcDbEntity
  8
Capa 01
100
AcDbLine
 10
464.8473907519916
 20
-106.338550803549
 30
0.0
 11
464.7628105424982
 21
-106.3579660389526
 31
0.0
  0
LINE
  5
288
330
1F
100
AcDbEntity
  8
Capa 01
100
AcDbLine
 10
464.7628105424982
 20
-106.3579660389526
 30
0.0
 11
464.677607449382
 21
-106.3744340724457
 31
0.0
  0
LINE
  5
289
330
1F
100
AcDbEntity
  8
Capa 01
100
AcDbLine
 10
464.677607449382
 20
-106.3744340724457
 30
0.0
 11
464.5918841357338
 21
-106.3879350613306
 31
0.0
  0
LINE
  5
28A
330
1F
100
AcDbEntity
  8
Capa 01
100
AcDbLine
 10
464.5918841357338
 20
-106.3879350613306
 30
0.0
 11
464.5057438914698
 21
-106.3984527379672
 31
0.0
  0
LINE
  5
28B
330
1F
100
AcDbEntity
  8
Capa 01
100
AcDbLine
 10
464.5057438914698
 20
-106.3984527379672
 30
0.0
 11
464.419290508875
 21
-106.4059744293745
 31
0.0
  0
LINE
  5
28C
330
1F
100
AcDbEntity
  8
Capa 01
100
AcDbLine
 10
464.419290508875
 20
-106.4059744293745
 30
0.0
 11
464.3326281575419
 21
-106.4104910725001
 31
0.0
  0
LINE
  5
28D
330
1F
100
AcDbEntity
  8
Capa 01
100
AcDbLine
 10
464.3326281575419
 20
-106.4104910725001
 30
0.0
 11
464.2458612588539
 21
-106.4119972251409
 31
0.0
  0
LINE
  5
28E
330
1F
100
AcDbEntity
  8
Capa 01
100
AcDbLine
 10
464.2458612588542
 20
-9.911997225140766
 30
0.0
 11
464.1590943601663
 21
-9.910491072500026
 31
0.0
  0
LINE
  5
28F
330
1F
100
AcDbEntity
  8
Capa 01
100
AcDbLine
 10
464.1590943601663
 20
-9.910491072500026
 30
0.0
 11
464.0724320088332
 21
-9.905974429374425
 31
0.0
  0
LINE
  5
290
330
1F
100
AcDbEntity
  8
Capa 01
100
AcDbLine
 10
464.0724320088332
 20
-9.905974429374425
 30
0.0
 11
463.9859786262384
 21
-9.898452737967142
 31
0.0
  0
LINE
  5
291
330
1F
100
AcDbEntity
  8
Capa 01
100
AcDbLine
 10
463.9859786262384
 20
-9.898452737967142
 30
0.0
 11
463.8998383819744
 21
-9.887935061330477
 31
0.0
  0
LINE
  5
292
330
1F
100
AcDbEntity
  8
Capa 01
100
AcDbLine
 10
463.8998383819744
 20
-9.887935061330477
 30
0.0
 11
463.8141150683261
 21
-9.874434072445585
 31
0.0
  0
LINE
  5
293
330
1F
100
AcDbEntity
  8
Capa 01
100
AcDbLine
 10
463.8141150683261
 20
-9.874434072445585
 30
0.0
 11
463.7289119752099
 21
-9.85796603895251
 31
0.0
  0
LINE
  5
294
330
1F
100
AcDbEntity
  8
Capa 01
100
AcDbLine
 10
463.7289119752099
 20
-9.85796603895251
 30
0.0
 11
463.6443317657166
 21
-9.838550803548962
 31
0.0
  0
LINE
  5
295
330
1F
100
AcDbEntity
  8
Capa 01
100
AcDbLine
 10
463.6443317657166
 20
-9.838550803548962
 30
0.0
 11
463.560476352411
 21
-9.8162117600814
 31
0.0
  0
LINE
  5
296
330
1F
100
AcDbEntity
  8
Capa 01
100
AcDbLine
 10
463.560476352411
 20
-9.8162117600814
 30
0.0
 11
463.4774467745348
 21
-9.790975825357272
 31
0.0
  0
LINE
  5
297
330
1F
100
AcDbEntity
  8
Capa 01
100
AcDbLine
 10
463.4774467745348
 20
-9.790975825357272
 30
0.0
 11
463.3953430762623
 21
-9.762873406712357
 31
0.0
  0
LINE
  5
298
330
1F
100
AcDbEntity
  8
Capa 01
100
AcDbLine
 10
463.3953430762623
 20
-9.762873406712357
 30
0.0
 11
463.3142641861553
 21
-9.7319383653723
 31
0.0
  0
LINE
  5
299
330
1F
100
AcDbEntity
  8
Capa 01
100
AcDbLine
 10
463.3142641861553
 20
-9.7319383653723
 30
0.0
 11
463.2343077979612
 21
-9.698207975652467
 31
0.0
  0
LINE
  5
29A
330
1F
100
AcDbEntity
  8
Capa 01
100
AcDbLine
 10
463.2343077979612
 20
-9.698207975652467
 30
0.0
 11
463.1555702529001
 21
-9.661722880045295
 31
0.0
  0
LINE
  5
29B
330
1F
100
AcDbEntity
  8
Capa 01
100
AcDbLine
 10
463.1555702529001
 20
-9.661722880045295
 30
0.0
 11
463.0781464235814
 21
-9.622527040249262
 31
0.0
  0
LINE
  5
29C
330
1F
100
AcDbEntity
  8
Capa 01
100
AcDbLine
 10
463.0781464235814
 20
-9.622527040249262
 30
0.0
 11
463.0021295996888
 21
-9.580667684198458
 31
0.0
  0
LINE
  5
29D
330
1F
100
AcDbEntity
  8
Capa 01
100
AcDbLine
 10
463.0021295996888
 20
-9.580667684198458
 30
0.0
 11
462.9276113755744
 21
-9.536195249156611
 31
0.0
  0
LINE
  5
29E
330
1F
100
AcDbEntity
  8
Capa 01
100
AcDbLine
 10
462.9276113755744
 20
-9.536195249156611
 30
0.0
 11
462.8546815398944
 21
-9.489163320944101
 31
0.0
  0
LINE
  5
29F
330
1F
100
AcDbEntity
  8
Capa 01
100
AcDbLine
 10
462.8546815398944
 20
-9.489163320944101
 30
0.0
 11
462.7834279674203
 21
-9.439628569371232
 31
0.0
  0
LINE
  5
2A0
330
1F
100
AcDbEntity
  8
Capa 01
100
AcDbLine
 10
462.7834279674203
 20
-9.439628569371232
 30
0.0
 11
462.7139365131573
 21
-9.387650679955511
 31
0.0
  0
LINE
  5
2A1
330
1F
100
AcDbEntity
  8
Capa 01
100
AcDbLine
 10
462.7139365131573
 20
-9.387650679955511
 30
0.0
 11
462.6462909088952
 21
-9.333292282005267
 31
0.0
  0
LINE
  5
2A2
330
1F
100
AcDbEntity
  8
Capa 01
100
AcDbLine
 10
462.6462909088952
 20
-9.333292282005267
 30
0.0
 11
462.5805726623184
 21
-9.276618873156192
 31
0.0
  0
LINE
  5
2A3
330
1F
100
AcDbEntity
  8
Capa 01
100
AcDbLine
 10
462.5805726623184
 20
-9.276618873156192
 30
0.0
 11
462.5168609587954
 21
-9.217698740451803
 31
0.0
  0
LINE
  5
2A4
330
1F
100
AcDbEntity
  8
Capa 01
100
AcDbLine
 10
462.5168609587954
 20
-9.217698740451803
 30
0.0
 11
462.4552325659667
 21
-9.156602878062873
 31
0.0
  0
LINE
  5
2A5
330
1F
100
AcDbEntity
  8
Capa 01
100
AcDbLine
 10
462.4552325659667
 20
-9.156602878062873
 30
0.0
 11
462.3957617412454
 21
-9.093404901744986
 31
0.0
  0
LINE
  5
2A6
330
1F
100
AcDbEntity
  8
Capa 01
100
AcDbLine
 10
462.3957617412454
 20
-9.093404901744986
 30
0.0
 11
462.3385201423434
 21
-9.028180960137275
 31
0.0
  0
LINE
  5
2A7
330
1F
100
AcDbEntity
  8
Capa 01
100
AcDbLine
 10
462.3385201423434
 20
-9.028180960137275
 30
0.0
 11
462.2835767409289
 21
-8.961009643009254
 31
0.0
  0
LINE
  5
2A8
330
1F
100
AcDbEntity
  8
Capa 01
100
AcDbLine
 10
462.2835767409289
 20
-8.961009643009254
 30
0.0
 11
462.2309977395213
 21
-8.891971886566264
 31
0.0
  0
LINE
  5
2A9
330
1F
100
AcDbEntity
  8
Capa 01
100
AcDbLine
 10
462.2309977395213
 20
-8.891971886566264
 30
0.0
 11
462.180846491722
 21
-8.821150875927644
 31
0.0
  0
LINE
  5
2AA
330
1F
100
AcDbEntity
  8
Capa 01
100
AcDbLine
 10
462.180846491722
 20
-8.821150875927644
 30
0.0
 11
462.1331834258785
 21
-8.748631944895152
 31
0.0
  0
LINE
  5
2AB
330
1F
100
AcDbEntity
  8
Capa 01
100
AcDbLine
 10
462.1331834258785
 20
-8.748631944895152
 30
0.0
 11
462.0880659722727
 21
-8.674502473132367
 31
0.0
  0
LINE
  5
2AC
330
1F
100
AcDbEntity
  8
Capa 01
100
AcDbLine
 10
462.0880659722727
 20
-8.674502473132367
 30
0.0
 11
462.0455484939221
 21
-8.598851780879015
 31
0.0
  0
LINE
  5
2AD
330
1F
100
AcDbEntity
  8
Capa 01
100
AcDbLine
 10
462.0455484939221
 20
-8.598851780879015
 30
0.0
 11
462.0056822210766
 21
-8.521771021327021
 31
0.0
  0
LINE
  5
2AE
330
1F
100
AcDbEntity
  8
Capa 01
100
AcDbLine
 10
462.0056822210766
 20
-8.521771021327021
 30
0.0
 11
461.9685151894899
 21
-8.443353070788028
 31
0.0
  0
LINE
  5
2AF
330
1F
100
AcDbEntity
  8
Capa 01
100
AcDbLine
 10
461.9685151894899
 20
-8.443353070788028
 30
0.0
 11
461.9340921825402
 21
-8.363692416784662
 31
0.0
  0
LINE
  5
2B0
330
1F
100
AcDbEntity
  8
Capa 01
100
AcDbLine
 10
461.9340921825402
 20
-8.363692416784662
 30
0.0
 11
461.9024546772698
 21
-8.282885044200437
 31
0.0
  0
LINE
  5
2B1
330
1F
100
AcDbEntity
  8
Capa 01
100
AcDbLine
 10
461.9024546772698
 20
-8.282885044200437
 30
0.0
 11
461.8736407944082
 21
-8.20102831962544
 31
0.0
  0
LINE
  5
2B2
330
1F
100
AcDbEntity
  8
Capa 01
100
AcDbLine
 10
461.8736407944082
 20
-8.20102831962544
 30
0.0
 11
461.8476852524403
 21
-8.118220874037176
 31
0.0
  0
LINE
  5
2B3
330
1F
100
AcDbEntity
  8
Capa 01
100
AcDbLine
 10
461.8476852524403
 20
-8.118220874037176
 30
0.0
 11
461.8246193257724
 21
-8.034562483957918
 31
0.0
  0
LINE
  5
2B4
330
1F
100
AcDbEntity
  8
Capa 01
100
AcDbLine
 10
461.8246193257724
 20
-8.034562483957918
 30
0.0
 11
461.8044708070495
 21
-7.950153951231783
 31
0.0
  0
LINE
  5
2B5
330
1F
100
AcDbEntity
  8
Capa 01
100
AcDbLine
 10
461.8044708070495
 20
-7.950153951231783
 30
0.0
 11
461.7872639736676
 21
-7.865096981566339
 31
0.0
  0
LINE
  5
2B6
330
1F
100
AcDbEntity
  8
Capa 01
100
AcDbLine
 10
461.7872639736676
 20
-7.865096981566339
 30
0.0
 11
461.7730195585205
 21
-7.779494061985168
 31
0.0
  0
LINE
  5
2B7
330
1F
100
AcDbEntity
  8
Capa 01
100
AcDbLine
 10
461.7730195585205
 20
-7.779494061985168
 30
0.0
 11
461.7617547250191
 21
-7.693448337338975
 31
0.0
  0
LINE
  5
2B8
330
1F
100
AcDbEntity
  8
Capa 01
100
AcDbLine
 10
461.7617547250191
 20
-7.693448337338975
 30
0.0
 11
461.7534830464103
 21
-7.607063486024079
 31
0.0
  0
LINE
  5
2B9
330
1F
100
AcDbEntity
  8
Capa 01
100
AcDbLine
 10
461.7534830464103
 20
-7.607063486024079
 30
0.0
 11
461.7482144894227
 21
-7.520443595058026
 31
0.0
  0
LINE
  5
2BA
330
1F
100
AcDbEntity
  8
Capa 01
100
AcDbLine
 10
461.7482144894227
 20
-7.520443595058026
 30
0.0
 11
461.745955402257
 21
-7.433693034662829
 31
0.0
  0
LINE
  5
2BB
330
1F
100
AcDbEntity
  8
Capa 01
100
AcDbLine
 10
461.745955402257
 20
-7.433693034662829
 30
0.0
 11
461.7467085069373
 21
-7.346916332506987
 31
0.0
  0
LINE
  5
2BC
330
1F
100
AcDbEntity
  8
Capa 01
100
AcDbLine
 10
461.7467085069373
 20
-7.346916332506987
 30
0.0
 11
461.7504728960311
 21
-7.260218047757787
 31
0.0
  0
LINE
  5
2BD
330
1F
100
AcDbEntity
  8
Capa 01
100
AcDbLine
 10
461.7504728960311
 20
-7.260218047757787
 30
0.0
 11
461.7572440337428
 21
-7.173702645095648
 31
0.0
  0
LINE
  5
2BE
330
1F
100
AcDbEntity
  8
Capa 01
100
AcDbLine
 10
461.7572440337428
 20
-7.173702645095648
 30
0.0
 11
461.7670137613788
 21
-7.087474368842316
 31
0.0
  0
LINE
  5
2BF
330
1F
100
AcDbEntity
  8
Capa 01
100
AcDbLine
 10
461.7670137613788
 20
-7.087474368842316
 30
0.0
 11
461.7797703071784
 21
-7.00163711735458
 31
0.0
  0
LINE
  5
2C0
330
1F
100
AcDbEntity
  8
Capa 01
100
AcDbLine
 10
461.7797703071784
 20
-7.00163711735458
 30
0.0
 11
461.7954983004972
 21
-6.91629431783484
 31
0.0
  0
LINE
  5
2C1
330
1F
100
AcDbEntity
  8
Capa 01
100
AcDbLine
 10
461.7954983004972
 20
-6.91629431783484
 30
0.0
 11
461.8141787903284
 21
-6.83154880170939
 31
0.0
  0
LINE
  5
2C2
330
1F
100
AcDbEntity
  8
Capa 01
100
AcDbLine
 10
461.8141787903284
 20
-6.83154880170939
 30
0.0
 11
461.8357892681367
 21
-6.747502680724552
 31
0.0
  0
LINE
  5
2C3
330
1F
100
AcDbEntity
  8
Capa 01
100
AcDbLine
 10
461.8357892681367
 20
-6.747502680724552
 30
0.0
 11
461.8603036949796
 21
-6.664257223909978
 31
0.0
  0
LINE
  5
2C4
330
1F
100
AcDbEntity
  8
Capa 01
100
AcDbLine
 10
461.8603036949796
 20
-6.664257223909978
 30
0.0
 11
461.8876925328821
 21
-6.581912735557357
 31
0.0
  0
LINE
  5
2C5
330
1F
100
AcDbEntity
  8
Capa 01
100
AcDbLine
 10
461.8876925328821
 20
-6.581912735557357
 30
0.0
 11
461.9179227804277
 21
-6.500568434361556
 31
0.0
  0
LINE
  5
2C6
330
1F
100
AcDbEntity
  8
Capa 01
100
AcDbLine
 10
461.9179227804277
 20
-6.500568434361556
 30
0.0
 11
461.9509580125227
 21
-6.420322333869818
 31
0.0
  0
LINE
  5
2C7
330
1F
100
AcDbEntity
  8
Capa 01
100
AcDbLine
 10
461.9509580125227
 20
-6.420322333869818
 30
0.0
 11
461.9867584242855
 21
-6.341271124383074
 31
0.0
  0
LINE
  5
2C8
330
1F
100
AcDbEntity
  8
Capa 01
100
AcDbLine
 10
461.9867584242855
 20
-6.341271124383074
 30
0.0
 11
462.0252808790083
 21
-6.263510056451664
 31
0.0
  0
LINE
  5
2C9
330
1F
100
AcDbEntity
  8
Capa 01
100
AcDbLine
 10
462.0252808790083
 20
-6.263510056451664
 30
0.0
 11
462.0664789601336
 21
-6.187132826105835
 31
0.0
  0
LINE
  5
2CA
330
1F
100
AcDbEntity
  8
Capa 01
100
AcDbLine
 10
462.0664789601336
 20
-6.187132826105835
 30
0.0
 11
462.1103030271824
 21
-6.112231461959332
 31
0.0
  0
LINE
  5
2CB
330
1F
100
AcDbEntity
  8
Capa 01
100
AcDbLine
 10
462.1103030271824
 20
-6.112231461959332
 30
0.0
 11
462.1567002755672
 21
-6.038896214322075
 31
0.0
  0
LINE
  5
2CC
330
1F
100
AcDbEntity
  8
Capa 01
100
AcDbLine
 10
462.1567002755672
 20
-6.038896214322075
 30
0.0
 11
462.2056148002176
 21
-5.967215446455579
 31
0.0
  0
LINE
  5
2CD
330
1F
100
AcDbEntity
  8
Capa 01
100
AcDbLine
 10
462.2056148002176
 20
-5.967215446455579
 30
0.0
 11
462.2569876629411
 21
-5.89727552810209
 31
0.0
  0
LINE
  5
2CE
330
1F
100
AcDbEntity
  8
Capa 01
100
AcDbLine
 10
462.2569876629411
 20
-5.89727552810209
 30
0.0
 11
462.3107569634395
 21
-5.829160731415787
 31
0.0
  0
LINE
  5
2CF
330
1F
100
AcDbEntity
  8
Capa 01
100
AcDbLine
 10
462.3107569634395
 20
-5.829160731415787
 30
0.0
 11
462.3668579138936
 21
-5.762953129421391
 31
0.0
  0
LINE
  5
2D0
330
1F
100
AcDbEntity
  8
Capa 01
100
AcDbLine
 10
462.3668579138936
 20
-5.762953129421391
 30
0.0
 11
462.4252229170277
 21
-5.698732497122568
 31
0.0
  0
LINE
  5
2D1
330
1F
100
AcDbEntity
  8
Capa 01
100
AcDbLine
 10
462.4252229170277
 20
-5.698732497122568
 30
0.0
 11
462.485781647559
 21
-5.636576215379258
 31
0.0
  0
LINE
  5
2D2
330
1F
100
AcDbEntity
  8
Capa 01
100
AcDbLine
 10
462.485781647559
 20
-5.636576215379258
 30
0.0
 11
462.5484611369337
 21
-5.576559177669772
 31
0.0
  0
LINE
  5
2D3
330
1F
100
AcDbEntity
  8
Capa 01
100
AcDbLine
 10
462.5484611369337
 20
-5.576559177669772
 30
0.0
 11
462.6131858612493
 21
-5.518753699849976
 31
0.0
  0
LINE
  5
2D4
330
1F
100
AcDbEntity
  8
Capa 01
100
AcDbLine
 10
462.6131858612493
 20
-5.518753699849976
 30
0.0
 11
462.6798778322541
 21
-5.463229433018327
 31
0.0
  0
LINE
  5
2D5
330
1F
100
AcDbEntity
  8
Capa 01
100
AcDbLine
 10
462.6798778322541
 20
-5.463229433018327
 30
0.0
 11
462.7484566913176
 21
-5.410053279591714
 31
0.0
  0
LINE
  5
2D6
330
1F
100
AcDbEntity
  8
Capa 01
100
AcDbLine
 10
462.7484566913176
 20
-5.410053279591714
 30
0.0
 11
462.8188398062561
 21
-5.359289312693263
 31
0.0
  0
LINE
  5
2D7
330
1F
100
AcDbEntity
  8
Capa 01
100
AcDbLine
 10
462.8188398062561
 20
-5.359289312693263
 30
0.0
 11
462.8909423708978
 21
-5.310998698949215
 31
0.0
  0
LINE
  5
2D8
330
1F
100
AcDbEntity
  8
Capa 01
100
AcDbLine
 10
462.8909423708978
 20
-5.310998698949215
 30
0.0
 11
462.9646775072686
 21
-5.265239624787897
 31
0.0
  0
LINE
  5
2D9
330
1F
100
AcDbEntity
  8
Capa 01
100
AcDbLine
 10
462.9646775072686
 20
-5.265239624787897
 30
0.0
 11
463.0399563702718
 21
-5.222067226329621
 31
0.0
  0
LINE
  5
2DA
330
1F
100
AcDbEntity
  8
Capa 01
100
AcDbLine
 10
463.0399563702718
 20
-5.222067226329621
 30
0.0
 11
463.116688254741
 21
-5.181533522951943
 31
0.0
  0
LINE
  5
2DB
330
1F
100
AcDbEntity
  8
Capa 01
100
AcDbLine
 10
463.116688254741
 20
-5.181533522951943
 30
0.0
 11
463.1947807047318
 21
-5.143687354610367
 31
0.0
  0
LINE
  5
2DC
330
1F
100
AcDbEntity
  8
Capa 01
100
AcDbLine
 10
463.1947807047318
 20
-5.143687354610367
 30
0.0
 11
463.2741396249244
 21
-5.108574322990005
 31
0.0
  0
LINE
  5
2DD
330
1F
100
AcDbEntity
  8
Capa 01
100
AcDbLine
 10
463.2741396249244
 20
-5.108574322990005
 30
0.0
 11
463.354669394001
 21
-5.076236736559096
 31
0.0
  0
LINE
  5
2DE
330
1F
100
AcDbEntity
  8
Capa 01
100
AcDbLine
 10
463.354669394001
 20
-5.076236736559096
 30
0.0
 11
463.436272979862
 21
-5.0467135595906
 31
0.0
  0
LINE
  5
2DF
330
1F
100
AcDbEntity
  8
Capa 01
100
AcDbLine
 10
463.436272979862
 20
-5.0467135595906
 30
0.0
 11
463.5188520565426
 21
-5.020040365213278
 31
0.0
  0
LINE
  5
2E0
330
1F
100
AcDbEntity
  8
Capa 01
100
AcDbLine
 10
463.5188520565426
 20
-5.020040365213278
 30
0.0
 11
463.6023071226871
 21
-4.99624929254885
 31
0.0
  0
LINE
  5
2E1
330
1F
100
AcDbEntity
  8
Capa 01
100
AcDbLine
 10
463.6023071226871
 20
-4.99624929254885
 30
0.0
 11
463.6865376214408
 21
-4.975369007986853
 31
0.0
  0
LINE
  5
2E2
330
1F
100
AcDbEntity
  8
Capa 01
100
AcDbLine
 10
463.6865376214408
 20
-4.975369007986853
 30
0.0
 11
463.7714420616135
 21
-4.95742467064387
 31
0.0
  0
LINE
  5
2E3
330
1F
100
AcDbEntity
  8
Capa 01
100
AcDbLine
 10
463.7714420616135
 20
-4.95742467064387
 30
0.0
 11
463.8569181399675
 21
-4.942437902048763
 31
0.0
  0
LINE
  5
2E4
330
1F
100
AcDbEntity
  8
Capa 01
100
AcDbLine
 10
463.8569181399675
 20
-4.942437902048763
 30
0.0
 11
463.942862864486
 21
-4.930426760090409
 31
0.0
  0
LINE
  5
2E5
330
1F
100
AcDbEntity
  8
Capa 01
100
AcDbLine
 10
463.942862864486
 20
-4.930426760090409
 30
0.0
 11
464.0291726784699
 21
-4.921405717259351
 31
0.0
  0
LINE
  5
2E6
330
1F
100
AcDbEntity
  8
Capa 01
100
AcDbLine
 10
464.0291726784699
 20
-4.921405717259351
 30
0.0
 11
464.1157435853159
 21
-4.915385643209573
 31
0.0
  0
LINE
  5
2E7
330
1F
100
AcDbEntity
  8
Capa 01
100
AcDbLine
 10
464.1157435853159
 20
-4.915385643209573
 30
0.0
 11
464.202471273824
 21
-4.91237379166142
 31
0.0
  0
LINE
  5
2E8
330
1F
100
AcDbEntity
  8
Capa 01
100
AcDbLine
 10
464.202471273824
 20
-4.91237379166142
 30
0.0
 11
464.2892512438845
 21
-4.91237379166142
 31
0.0
  0
LINE
  5
2E9
330
1F
100
AcDbEntity
  8
Capa 01
100
AcDbLine
 10
464.2892512438845
 20
-4.91237379166142
 30
0.0
 11
464.3759789323926
 21
-4.915385643209573
 31
0.0
  0
LINE
  5
2EA
330
1F
100
AcDbEntity
  8
Capa 01
100
AcDbLine
 10
464.3759789323926
 20
-4.915385643209573
 30
0.0
 11
464.4625498392386
 21
-4.921405717259351
 31
0.0
  0
LINE
  5
2EB
330
1F
100
AcDbEntity
  8
Capa 01
100
AcDbLine
 10
464.4625498392386
 20
-4.921405717259351
 30
0.0
 11
464.5488596532225
 21
-4.930426760090409
 31
0.0
  0
LINE
  5
2EC
330
1F
100
AcDbEntity
  8
Capa 01
100
AcDbLine
 10
464.5488596532225
 20
-4.930426760090409
 30
0.0
 11
464.634804377741
 21
-4.942437902048763
 31
0.0
  0
LINE
  5
2ED
330
1F
100
AcDbEntity
  8
Capa 01
100
AcDbLine
 10
464.634804377741
 20
-4.942437902048763
 30
0.0
 11
464.720280456095
 21
-4.957424670643869
 31
0.0
  0
LINE
  5
2EE
330
1F
100
AcDbEntity
  8
Capa 01
100
AcDbLine
 10
464.720280456095
 20
-4.957424670643869
 30
0.0
 11
464.8051848962676
 21
-4.975369007986853
 31
0.0
  0
LINE
  5
2EF
330
1F
100
AcDbEntity
  8
Capa 01
100
AcDbLine
 10
464.8051848962676
 20
-4.975369007986853
 30
0.0
 11
464.8894153950214
 21
-4.99624929254885
 31
0.0
  0
LINE
  5
2F0
330
1F
100
AcDbEntity
  8
Capa 01
100
AcDbLine
 10
464.8894153950214
 20
-4.99624929254885
 30
0.0
 11
464.9728704611659
 21
-5.020040365213277
 31
0.0
  0
LINE
  5
2F1
330
1F
100
AcDbEntity
  8
Capa 01
100
AcDbLine
 10
464.9728704611659
 20
-5.020040365213277
 30
0.0
 11
465.0554495378464
 21
-5.046713559590599
 31
0.0
  0
LINE
  5
2F2
330
1F
100
AcDbEntity
  8
Capa 01
100
AcDbLine
 10
465.0554495378464
 20
-5.046713559590599
 30
0.0
 11
465.1370531237075
 21
-5.076236736559096
 31
0.0
  0
LINE
  5
2F3
330
1F
100
AcDbEntity
  8
Capa 01
100
AcDbLine
 10
465.1370531237075
 20
-5.076236736559096
 30
0.0
 11
465.2175828927841
 21
-5.108574322990004
 31
0.0
  0
LINE
  5
2F4
330
1F
100
AcDbEntity
  8
Capa 01
100
AcDbLine
 10
465.2175828927841
 20
-5.108574322990004
 30
0.0
 11
465.2969418129767
 21
-5.143687354610367
 31
0.0
  0
LINE
  5
2F5
330
1F
100
AcDbEntity
  8
Capa 01
100
AcDbLine
 10
465.2969418129767
 20
-5.143687354610367
 30
0.0
 11
465.3750342629675
 21
-5.181533522951942
 31
0.0
  0
LINE
  5
2F6
330
1F
100
AcDbEntity
  8
Capa 01
100
AcDbLine
 10
465.3750342629675
 20
-5.181533522951942
 30
0.0
 11
465.4517661474367
 21
-5.222067226329621
 31
0.0
  0
LINE
  5
2F7
330
1F
100
AcDbEntity
  8
Capa 01
100
AcDbLine
 10
465.4517661474367
 20
-5.222067226329621
 30
0.0
 11
465.5270450104399
 21
-5.265239624787895
 31
0.0
  0
LINE
  5
2F8
330
1F
100
AcDbEntity
  8
Capa 01
100
AcDbLine
 10
465.5270450104399
 20
-5.265239624787895
 30
0.0
 11
465.6007801468106
 21
-5.310998698949211
 31
0.0
  0
LINE
  5
2F9
330
1F
100
AcDbEntity
  8
Capa 01
100
AcDbLine
 10
465.6007801468106
 20
-5.310998698949211
 30
0.0
 11
465.6728827114524
 21
-5.359289312693261
 31
0.0
  0
LINE
  5
2FA
330
1F
100
AcDbEntity
  8
Capa 01
100
AcDbLine
 10
465.6728827114524
 20
-5.359289312693261
 30
0.0
 11
465.7432658263908
 21
-5.410053279591711
 31
0.0
  0
LINE
  5
2FB
330
1F
100
AcDbEntity
  8
Capa 01
100
AcDbLine
 10
465.7432658263908
 20
-5.410053279591711
 30
0.0
 11
465.8118446854543
 21
-5.463229433018324
 31
0.0
  0
LINE
  5
2FC
330
1F
100
AcDbEntity
  8
Capa 01
100
AcDbLine
 10
465.8118446854543
 20
-5.463229433018324
 30
0.0
 11
465.8785366564592
 21
-5.518753699849975
 31
0.0
  0
LINE
  5
2FD
330
1F
100
AcDbEntity
  8
Capa 01
100
AcDbLine
 10
465.8785366564592
 20
-5.518753699849975
 30
0.0
 11
465.9432613807748
 21
-5.576559177669769
 31
0.0
  0
LINE
  5
2FE
330
1F
100
AcDbEntity
  8
Capa 01
100
AcDbLine
 10
465.9432613807748
 20
-5.576559177669769
 30
0.0
 11
466.0059408701495
 21
-5.636576215379256
 31
0.0
  0
LINE
  5
2FF
330
1F
100
AcDbEntity
  8
Capa 01
100
AcDbLine
 10
466.0059408701495
 20
-5.636576215379256
 30
0.0
 11
466.0664996006807
 21
-5.698732497122564
 31
0.0
  0
LINE
  5
300
330
1F
100
AcDbEntity
  8
Capa 01
100
AcDbLine
 10
466.0664996006807
 20
-5.698732497122564
 30
0.0
 11
466.1248646038148
 21
-5.762953129421388
 31
0.0
  0
LINE
  5
301
330
1F
100
AcDbEntity
  8
Capa 01
100
AcDbLine
 10
466.1248646038148
 20
-5.762953129421388
 30
0.0
 11
466.1809655542689
 21
-5.829160731415782
 31
0.0
  0
LINE
  5
302
330
1F
100
AcDbEntity
  8
Capa 01
100
AcDbLine
 10
466.1809655542689
 20
-5.829160731415782
 30
0.0
 11
466.2347348547673
 21
-5.897275528102087
 31
0.0
  0
LINE
  5
303
330
1F
100
AcDbEntity
  8
Capa 01
100
AcDbLine
 10
466.2347348547673
 20
-5.897275528102087
 30
0.0
 11
466.2861077174908
 21
-5.967215446455575
 31
0.0
  0
LINE
  5
304
330
1F
100
AcDbEntity
  8
Capa 01
100
AcDbLine
 10
466.2861077174908
 20
-5.967215446455575
 30
0.0
 11
466.3350222421412
 21
-6.038896214322071
 31
0.0
  0
LINE
  5
305
330
1F
100
AcDbEntity
  8
Capa 01
100
AcDbLine
 10
466.3350222421412
 20
-6.038896214322071
 30
0.0
 11
466.3814194905261
 21
-6.11223146195933
 31
0.0
  0
LINE
  5
306
330
1F
100
AcDbEntity
  8
Capa 01
100
AcDbLine
 10
466.3814194905261
 20
-6.11223146195933
 30
0.0
 11
466.4252435575748
 21
-6.187132826105833
 31
0.0
  0
LINE
  5
307
330
1F
100
AcDbEntity
  8
Capa 01
100
AcDbLine
 10
466.4252435575748
 20
-6.187132826105833
 30
0.0
 11
466.4664416387001
 21
-6.26351005645166
 31
0.0
  0
LINE
  5
308
330
1F
100
AcDbEntity
  8
Capa 01
100
AcDbLine
 10
466.4664416387001
 20
-6.26351005645166
 30
0.0
 11
466.5049640934229
 21
-6.34127112438307
 31
0.0
  0
LINE
  5
309
330
1F
100
AcDbEntity
  8
Capa 01
100
AcDbLine
 10
466.5049640934229
 20
-6.34127112438307
 30
0.0
 11
466.5407645051857
 21
-6.420322333869815
 31
0.0
  0
LINE
  5
30A
330
1F
100
AcDbEntity
  8
Capa 01
100
AcDbLine
 10
466.5407645051857
 20
-6.420322333869815
 30
0.0
 11
466.5737997372808
 21
-6.500568434361553
 31
0.0
  0
LINE
  5
30B
330
1F
100
AcDbEntity
  8
Capa 01
100
AcDbLine
 10
466.5737997372808
 20
-6.500568434361553
 30
0.0
 11
466.6040299848264
 21
-6.581912735557355
 31
0.0
  0
LINE
  5
30C
330
1F
100
AcDbEntity
  8
Capa 01
100
AcDbLine
 10
466.6040299848264
 20
-6.581912735557355
 30
0.0
 11
466.6314188227288
 21
-6.664257223909975
 31
0.0
  0
LINE
  5
30D
330
1F
100
AcDbEntity
  8
Capa 01
100
AcDbLine
 10
466.6314188227288
 20
-6.664257223909975
 30
0.0
 11
466.6559332495718
 21
-6.74750268072455
 31
0.0
  0
LINE
  5
30E
330
1F
100
AcDbEntity
  8
Capa 01
100
AcDbLine
 10
466.6559332495718
 20
-6.74750268072455
 30
0.0
 11
466.6775437273801
 21
-6.831548801709387
 31
0.0
  0
LINE
  5
30F
330
1F
100
AcDbEntity
  8
Capa 01
100
AcDbLine
 10
466.6775437273801
 20
-6.831548801709387
 30
0.0
 11
466.6962242172113
 21
-6.916294317834837
 31
0.0
  0
LINE
  5
310
330
1F
100
AcDbEntity
  8
Capa 01
100
AcDbLine
 10
466.6962242172113
 20
-6.916294317834837
 30
0.0
 11
466.7119522105301
 21
-7.001637117354576
 31
0.0
  0
LINE
  5
311
330
1F
100
AcDbEntity
  8
Capa 01
100
AcDbLine
 10
466.7119522105301
 20
-7.001637117354576
 30
0.0
 11
466.7247087563296
 21
-7.087474368842312
 31
0.0
  0
LINE
  5
312
330
1F
100
AcDbEntity
  8
Capa 01
100
AcDbLine
 10
466.7247087563296
 20
-7.087474368842312
 30
0.0
 11
466.7344784839656
 21
-7.173702645095646
 31
0.0
  0
LINE
  5
313
330
1F
100
AcDbEntity
  8
Capa 01
100
AcDbLine
 10
466.7344784839656
 20
-7.173702645095646
 30
0.0
 11
466.7412496216774
 21
-7.260218047757784
 31
0.0
  0
LINE
  5
314
330
1F
100
AcDbEntity
  8
Capa 01
100
AcDbLine
 10
466.7412496216774
 20
-7.260218047757784
 30
0.0
 11
466.7450140107712
 21
-7.346916332506983
 31
0.0
  0
LINE
  5
315
330
1F
100
AcDbEntity
  8
Capa 01
100
AcDbLine
 10
466.7450140107712
 20
-7.346916332506983
 30
0.0
 11
466.7457671154515
 21
-7.433693034662826
 31
0.0
  0
LINE
  5
316
330
1F
100
AcDbEntity
  8
Capa 01
100
AcDbLine
 10
466.7457671154515
 20
-7.433693034662826
 30
0.0
 11
466.7435080282858
 21
-7.520443595058024
 31
0.0
  0
LINE
  5
317
330
1F
100
AcDbEntity
  8
Capa 01
100
AcDbLine
 10
466.7435080282858
 20
-7.520443595058024
 30
0.0
 11
466.7382394712981
 21
-7.607063486024076
 31
0.0
  0
LINE
  5
318
330
1F
100
AcDbEntity
  8
Capa 01
100
AcDbLine
 10
466.7382394712981
 20
-7.607063486024076
 30
0.0
 11
466.7299677926894
 21
-7.69344833733897
 31
0.0
  0
LINE
  5
319
330
1F
100
AcDbEntity
  8
Capa 01
100
AcDbLine
 10
466.7299677926894
 20
-7.69344833733897
 30
0.0
 11
466.718702959188
 21
-7.779494061985165
 31
0.0
  0
LINE
  5
31A
330
1F
100
AcDbEntity
  8
Capa 01
100
AcDbLine
 10
466.718702959188
 20
-7.779494061985165
 30
0.0
 11
466.7044585440408
 21
-7.865096981566336
 31
0.0
  0
LINE
  5
31B
330
1F
100
AcDbEntity
  8
Capa 01
100
AcDbLine
 10
466.7044585440408
 20
-7.865096981566336
 30
0.0
 11
466.6872517106589
 21
-7.950153951231781
 31
0.0
  0
LINE
  5
31C
330
1F
100
AcDbEntity
  8
Capa 01
100
AcDbLine
 10
466.6872517106589
 20
-7.950153951231781
 30
0.0
 11
466.6671031919361
 21
-8.034562483957917
 31
0.0
  0
LINE
  5
31D
330
1F
100
AcDbEntity
  8
Capa 01
100
AcDbLine
 10
466.6671031919361
 20
-8.034562483957917
 30
0.0
 11
466.6440372652681
 21
-8.118220874037176
 31
0.0
  0
LINE
  5
31E
330
1F
100
AcDbEntity
  8
Capa 01
100
AcDbLine
 10
466.6440372652681
 20
-8.118220874037176
 30
0.0
 11
466.6180817233002
 21
-8.20102831962544
 31
0.0
  0
LINE
  5
31F
330
1F
100
AcDbEntity
  8
Capa 01
100
AcDbLine
 10
466.6180817233002
 20
-8.20102831962544
 30
0.0
 11
466.5892678404387
 21
-8.282885044200437
 31
0.0
  0
LINE
  5
320
330
1F
100
AcDbEntity
  8
Capa 01
100
AcDbLine
 10
466.5892678404387
 20
-8.282885044200437
 30
0.0
 11
466.5576303351683
 21
-8.363692416784662
 31
0.0
  0
LINE
  5
321
330
1F
100
AcDbEntity
  8
Capa 01
100
AcDbLine
 10
466.5576303351683
 20
-8.363692416784662
 30
0.0
 11
466.5232073282186
 21
-8.443353070788026
 31
0.0
  0
LINE
  5
322
330
1F
100
AcDbEntity
  8
Capa 01
100
AcDbLine
 10
466.5232073282186
 20
-8.443353070788026
 30
0.0
 11
466.4860402966319
 21
-8.521771021327021
 31
0.0
  0
LINE
  5
323
330
1F
100
AcDbEntity
  8
Capa 01
100
AcDbLine
 10
466.4860402966319
 20
-8.521771021327021
 30
0.0
 11
466.4461740237864
 21
-8.598851780879013
 31
0.0
  0
LINE
  5
324
330
1F
100
AcDbEntity
  8
Capa 01
100
AcDbLine
 10
466.4461740237864
 20
-8.598851780879013
 30
0.0
 11
466.4036565454358
 21
-8.674502473132366
 31
0.0
  0
LINE
  5
325
330
1F
100
AcDbEntity
  8
Capa 01
100
AcDbLine
 10
466.4036565454358
 20
-8.674502473132366
 30
0.0
 11
466.35853909183
 21
-8.74863194489515
 31
0.0
  0
LINE
  5
326
330
1F
100
AcDbEntity
  8
Capa 01
100
AcDbLine
 10
466.35853909183
 20
-8.74863194489515
 30
0.0
 11
466.3108760259864
 21
-8.821150875927643
 31
0.0
  0
LINE
  5
327
330
1F
100
AcDbEntity
  8
Capa 01
100
AcDbLine
 10
466.3108760259864
 20
-8.821150875927643
 30
0.0
 11
466.2607247781871
 21
-8.891971886566262
 31
0.0
  0
LINE
  5
328
330
1F
100
AcDbEntity
  8
Capa 01
100
AcDbLine
 10
466.2607247781871
 20
-8.891971886566262
 30
0.0
 11
466.2081457767795
 21
-8.961009643009252
 31
0.0
  0
LINE
  5
329
330
1F
100
AcDbEntity
  8
Capa 01
100
AcDbLine
 10
466.2081457767795
 20
-8.961009643009252
 30
0.0
 11
466.153202375365
 21
-9.028180960137274
 31
0.0
  0
LINE
  5
32A
330
1F
100
AcDbEntity
  8
Capa 01
100
AcDbLine
 10
466.153202375365
 20
-9.028180960137274
 30
0.0
 11
466.0959607764631
 21
-9.093404901744986
 31
0.0
  0
LINE
  5
32B
330
1F
100
AcDbEntity
  8
Capa 01
100
AcDbLine
 10
466.0959607764631
 20
-9.093404901744986
 30
0.0
 11
466.0364899517418
 21
-9.156602878062873
 31
0.0
  0
LINE
  5
32C
330
1F
100
AcDbEntity
  8
Capa 01
100
AcDbLine
 10
466.0364899517418
 20
-9.156602878062873
 30
0.0
 11
465.9748615589131
 21
-9.217698740451802
 31
0.0
  0
LINE
  5
32D
330
1F
100
AcDbEntity
  8
Capa 01
100
AcDbLine
 10
465.9748615589131
 20
-9.217698740451802
 30
0.0
 11
465.9111498553901
 21
-9.276618873156192
 31
0.0
  0
LINE
  5
32E
330
1F
100
AcDbEntity
  8
Capa 01
100
AcDbLine
 10
465.9111498553901
 20
-9.276618873156192
 30
0.0
 11
465.8454316088133
 21
-9.333292282005267
 31
0.0
  0
LINE
  5
32F
330
1F
100
AcDbEntity
  8
Capa 01
100
AcDbLine
 10
465.8454316088133
 20
-9.333292282005267
 30
0.0
 11
465.7777860045512
 21
-9.387650679955511
 31
0.0
  0
LINE
  5
330
330
1F
100
AcDbEntity
  8
Capa 01
100
AcDbLine
 10
465.7777860045512
 20
-9.387650679955511
 30
0.0
 11
465.7082945502881
 21
-9.43962856937123
 31
0.0
  0
LINE
  5
331
330
1F
100
AcDbEntity
  8
Capa 01
100
AcDbLine
 10
465.7082945502881
 20
-9.43962856937123
 30
0.0
 11
465.6370409778141
 21
-9.489163320944101
 31
0.0
  0
LINE
  5
332
330
1F
100
AcDbEntity
  8
Capa 01
100
AcDbLine
 10
465.6370409778141
 20
-9.489163320944101
 30
0.0
 11
465.564111142134
 21
-9.536195249156611
 31
0.0
  0
LINE
  5
333
330
1F
100
AcDbEntity
  8
Capa 01
100
AcDbLine
 10
465.564111142134
 20
-9.536195249156611
 30
0.0
 11
465.4895929180197
 21
-9.580667684198458
 31
0.0
  0
LINE
  5
334
330
1F
100
AcDbEntity
  8
Capa 01
100
AcDbLine
 10
465.4895929180197
 20
-9.580667684198458
 30
0.0
 11
465.4135760941271
 21
-9.62252704024926
 31
0.0
  0
LINE
  5
335
330
1F
100
AcDbEntity
  8
Capa 01
100
AcDbLine
 10
465.4135760941271
 20
-9.62252704024926
 30
0.0
 11
465.3361522648083
 21
-9.661722880045293
 31
0.0
  0
LINE
  5
336
330
1F
100
AcDbEntity
  8
Capa 01
100
AcDbLine
 10
465.3361522648083
 20
-9.661722880045293
 30
0.0
 11
465.2574147197473
 21
-9.698207975652467
 31
0.0
  0
LINE
  5
337
330
1F
100
AcDbEntity
  8
Capa 01
100
AcDbLine
 10
465.2574147197473
 20
-9.698207975652467
 30
0.0
 11
465.1774583315532
 21
-9.7319383653723
 31
0.0
  0
LINE
  5
338
330
1F
100
AcDbEntity
  8
Capa 01
100
AcDbLine
 10
465.1774583315532
 20
-9.7319383653723
 30
0.0
 11
465.0963794414461
 21
-9.762873406712357
 31
0.0
  0
LINE
  5
339
330
1F
100
AcDbEntity
  8
Capa 01
100
AcDbLine
 10
465.0963794414461
 20
-9.762873406712357
 30
0.0
 11
465.0142757431737
 21
-9.790975825357272
 31
0.0
  0
LINE
  5
33A
330
1F
100
AcDbEntity
  8
Capa 01
100
AcDbLine
 10
465.0142757431737
 20
-9.790975825357272
 30
0.0
 11
464.9312461652975
 21
-9.8162117600814
 31
0.0
  0
LINE
  5
33B
330
1F
100
AcDbEntity
  8
Capa 01
100
AcDbLine
 10
464.9312461652975
 20
-9.8162117600814
 30
0.0
 11
464.8473907519918
 21
-9.838550803548962
 31
0.0
  0
LINE
  5
33C
330
1F
100
AcDbEntity
  8
Capa 01
100
AcDbLine
 10
464.8473907519918
 20
-9.838550803548962
 30
0.0
 11
464.7628105424985
 21
-9.857966038952508
 31
0.0
  0
LINE
  5
33D
330
1F
100
AcDbEntity
  8
Capa 01
100
AcDbLine
 10
464.7628105424985
 20
-9.857966038952508
 30
0.0
 11
464.6776074493823
 21
-9.874434072445583
 31
0.0
  0
LINE
  5
33E
330
1F
100
AcDbEntity
  8
Capa 01
100
AcDbLine
 10
464.6776074493823
 20
-9.874434072445583
 30
0.0
 11
464.5918841357341
 21
-9.887935061330477
 31
0.0
  0
LINE
  5
33F
330
1F
100
AcDbEntity
  8
Capa 01
100
AcDbLine
 10
464.5918841357341
 20
-9.887935061330477
 30
0.0
 11
464.50574389147
 21
-9.898452737967142
 31
0.0
  0
LINE
  5
340
330
1F
100
AcDbEntity
  8
Capa 01
100
AcDbLine
 10
464.50574389147
 20
-9.898452737967142
 30
0.0
 11
464.4192905088753
 21
-9.905974429374425
 31
0.0
  0
LINE
  5
341
330
1F
100
AcDbEntity
  8
Capa 01
100
AcDbLine
 10
464.4192905088753
 20
-9.905974429374425
 30
0.0
 11
464.3326281575422
 21
-9.910491072500026
 31
0.0
  0
LINE
  5
342
330
1F
100
AcDbEntity
  8
Capa 01
100
AcDbLine
 10
464.3326281575422
 20
-9.910491072500026
 30
0.0
 11
464.2458612588542
 21
-9.911997225140766
 31
0.0
  0
LINE
  5
344
330
1F
100
AcDbEntity
  8
Predeterminada
100
AcDbLine
 10
459.2458612588542
 20
-161.9119972251408
 30
0.0
 11
459.2458612588543
 21
-295.4119972251408
 31
0.0
  0
LINE
  5
345
330
1F
100
AcDbEntity
  8
Predeterminada
100
AcDbLine
 10
459.2458612588543
 20
-295.4119972251408
 30
0.0
 11
619.2458612588543
 21
-295.4119972251407
 31
0.0
  0
LINE
  5
346
330
1F
100
AcDbEntity
  8
Predeterminada
100
AcDbLine
 10
619.2458612588542
 20
-295.4119972251407
 30
0.0
 11
620.9529167681526
 21
-295.3828483434494
 31
0.0
  0
LINE
  5
347
330
1F
100
AcDbEntity
  8
Predeterminada
100
AcDbLine
 10
620.9529167681526
 20
-295.3828483434494
 30
0.0
 11
622.6579819270878
 21
-295.2954356846677
 31
0.0
  0
LINE
  5
348
330
1F
100
AcDbEntity
  8
Predeterminada
100
AcDbLine
 10
622.6579819270878
 20
-295.2954356846677
 30
0.0
 11
624.3590687059559
 21
-295.1498611680454
 31
0.0
  0
LINE
  5
349
330
1F
100
AcDbEntity
  8
Predeterminada
100
AcDbLine
 10
624.3590687059559
 20
-295.1498611680454
 30
0.0
 11
626.0541937136666
 21
-294.9462945269572
 31
0.0
  0
LINE
  5
34A
330
1F
100
AcDbEntity
  8
Predeterminada
100
AcDbLine
 10
626.0541937136666
 20
-294.9462945269572
 30
0.0
 11
627.7413805102875
 21
-294.6849731110005
 31
0.0
  0
LINE
  5
34B
330
1F
100
AcDbEntity
  8
Predeterminada
100
AcDbLine
 10
627.7413805102875
 20
-294.6849731110005
 30
0.0
 11
629.418661911486
 21
-294.3662016092568
 31
0.0
  0
LINE
  5
34C
330
1F
100
AcDbEntity
  8
Predeterminada
100
AcDbLine
 10
629.418661911486
 20
-294.3662016092568
 30
0.0
 11
631.0840822821766
 21
-293.9903516950378
 31
0.0
  0
LINE
  5
34D
330
1F
100
AcDbEntity
  8
Predeterminada
100
AcDbLine
 10
631.0840822821766
 20
-293.9903516950378
 30
0.0
 11
632.7356998167054
 21
-293.5578615925307
 31
0.0
  0
LINE
  5
34E
330
1F
100
AcDbEntity
  8
Predeterminada
100
AcDbLine
 10
632.7356998167054
 20
-293.5578615925307
 30
0.0
 11
634.371588802908
 21
-293.0692355658488
 31
0.0
  0
LINE
  5
34F
330
1F
100
AcDbEntity
  8
Predeterminada
100
AcDbLine
 10
634.371588802908
 20
-293.0692355658488
 30
0.0
 11
635.9898418674036
 21
-292.5250433310817
 31
0.0
  0
LINE
  5
350
330
1F
100
AcDbEntity
  8
Predeterminada
100
AcDbLine
 10
635.9898418674036
 20
-292.5250433310817
 30
0.0
 11
637.5885721995071
 21
-291.9259193920324
 31
0.0
  0
LINE
  5
351
330
1F
100
AcDbEntity
  8
Predeterminada
100
AcDbLine
 10
637.5885721995071
 20
-291.9259193920324
 30
0.0
 11
639.1659157511663
 21
-291.2725623004134
 31
0.0
  0
LINE
  5
352
330
1F
100
AcDbEntity
  8
Predeterminada
100
AcDbLine
 10
639.1659157511663
 20
-291.2725623004134
 30
0.0
 11
640.7200334103584
 21
-290.5657338413673
 31
0.0
  0
LINE
  5
353
330
1F
100
AcDbEntity
  8
Predeterminada
100
AcDbLine
 10
640.7200334103584
 20
-290.5657338413673
 30
0.0
 11
642.2491131454118
 21
-289.8062581452594
 31
0.0
  0
LINE
  5
354
330
1F
100
AcDbEntity
  8
Predeterminada
100
AcDbLine
 10
642.2491131454118
 20
-289.8062581452594
 30
0.0
 11
643.7513721177551
 21
-288.9950207267783
 31
0.0
  0
LINE
  5
355
330
1F
100
AcDbEntity
  8
Predeterminada
100
AcDbLine
 10
643.7513721177551
 20
-288.9950207267783
 30
0.0
 11
645.2250587606259
 21
-288.1329674524652
 31
0.0
  0
LINE
  5
356
330
1F
100
AcDbEntity
  8
Predeterminada
100
AcDbLine
 10
645.2250587606259
 20
-288.1329674524652
 30
0.0
 11
646.6684548213202
 21
-287.2211034378763
 31
0.0
  0
LINE
  5
357
330
1F
100
AcDbEntity
  8
Predeterminada
100
AcDbLine
 10
646.6684548213202
 20
-287.2211034378763
 30
0.0
 11
648.0798773645976
 21
-286.2604918756628
 31
0.0
  0
LINE
  5
358
330
1F
100
AcDbEntity
  8
Predeterminada
100
AcDbLine
 10
648.0798773645976
 20
-286.2604918756628
 30
0.0
 11
649.457680734909
 21
-285.2522527959359
 31
0.0
  0
LINE
  5
359
330
1F
100
AcDbEntity
  8
Predeterminada
100
AcDbLine
 10
649.457680734909
 20
-285.2522527959359
 30
0.0
 11
650.8002584751569
 21
-284.1975617603617
 31
0.0
  0
LINE
  5
35A
330
1F
100
AcDbEntity
  8
Predeterminada
100
AcDbLine
 10
650.8002584751569
 20
-284.1975617603617
 30
0.0
 11
652.1060451997529
 21
-283.0976484915088
 31
0.0
  0
LINE
  5
35B
330
1F
100
AcDbEntity
  8
Predeterminada
100
AcDbLine
 10
652.1060451997529
 20
-283.0976484915088
 30
0.0
 11
653.3735184197869
 21
-281.9537954390469
 31
0.0
  0
LINE
  5
35C
330
1F
100
AcDbEntity
  8
Predeterminada
100
AcDbLine
 10
653.3735184197869
 20
-281.9537954390469
 30
0.0
 11
654.6012003181816
 21
-280.7673362844681
 31
0.0
  0
LINE
  5
35D
330
1F
100
AcDbEntity
  8
Predeterminada
100
AcDbLine
 10
654.6012003181816
 20
-280.7673362844681
 30
0.0
 11
655.7876594727604
 21
-279.5396543860734
 31
0.0
  0
LINE
  5
35E
330
1F
100
AcDbEntity
  8
Predeterminada
100
AcDbLine
 10
655.7876594727604
 20
-279.5396543860734
 30
0.0
 11
656.9315125252223
 21
-278.2721811660393
 31
0.0
  0
LINE
  5
35F
330
1F
100
AcDbEntity
  8
Predeterminada
100
AcDbLine
 10
656.9315125252223
 20
-278.2721811660393
 30
0.0
 11
658.0314257940752
 21
-276.9663944414434
 31
0.0
  0
LINE
  5
360
330
1F
100
AcDbEntity
  8
Predeterminada
100
AcDbLine
 10
658.0314257940752
 20
-276.9663944414434
 30
0.0
 11
659.0861168296494
 21
-275.6238167011954
 31
0.0
  0
LINE
  5
361
330
1F
100
AcDbEntity
  8
Predeterminada
100
AcDbLine
 10
659.0861168296494
 20
-275.6238167011954
 30
0.0
 11
660.0943559093763
 21
-274.2460133308841
 31
0.0
  0
LINE
  5
362
330
1F
100
AcDbEntity
  8
Predeterminada
100
AcDbLine
 10
660.0943559093763
 20
-274.2460133308841
 30
0.0
 11
661.0549674715897
 21
-272.8345907876067
 31
0.0
  0
LINE
  5
363
330
1F
100
AcDbEntity
  8
Predeterminada
100
AcDbLine
 10
661.0549674715897
 20
-272.8345907876067
 30
0.0
 11
661.9668314861786
 21
-271.3911947269124
 31
0.0
  0
LINE
  5
364
330
1F
100
AcDbEntity
  8
Predeterminada
100
AcDbLine
 10
661.9668314861786
 20
-271.3911947269124
 30
0.0
 11
662.8288847604917
 21
-269.9175080840416
 31
0.0
  0
LINE
  5
365
330
1F
100
AcDbEntity
  8
Predeterminada
100
AcDbLine
 10
662.8288847604917
 20
-269.9175080840416
 30
0.0
 11
663.640122178973
 21
-268.4152491116983
 31
0.0
  0
LINE
  5
366
330
1F
100
AcDbEntity
  8
Predeterminada
100
AcDbLine
 10
663.640122178973
 20
-268.4152491116983
 30
0.0
 11
664.3995978750809
 21
-266.8861693766448
 31
0.0
  0
LINE
  5
367
330
1F
100
AcDbEntity
  8
Predeterminada
100
AcDbLine
 10
664.3995978750809
 20
-266.8861693766448
 30
0.0
 11
665.1064263341269
 21
-265.3320517174528
 31
0.0
  0
LINE
  5
368
330
1F
100
AcDbEntity
  8
Predeterminada
100
AcDbLine
 10
665.1064263341269
 20
-265.3320517174528
 30
0.0
 11
665.7597834257459
 21
-263.7547081657935
 31
0.0
  0
LINE
  5
369
330
1F
100
AcDbEntity
  8
Predeterminada
100
AcDbLine
 10
665.7597834257459
 20
-263.7547081657935
 30
0.0
 11
666.3589073647953
 21
-262.15597783369
 31
0.0
  0
LINE
  5
36A
330
1F
100
AcDbEntity
  8
Predeterminada
100
AcDbLine
 10
666.3589073647953
 20
-262.15597783369
 30
0.0
 11
666.9030995995623
 21
-260.5377247691945
 31
0.0
  0
LINE
  5
36B
330
1F
100
AcDbEntity
  8
Predeterminada
100
AcDbLine
 10
666.9030995995623
 20
-260.5377247691945
 30
0.0
 11
667.3917256262442
 21
-258.9018357829919
 31
0.0
  0
LINE
  5
36C
330
1F
100
AcDbEntity
  8
Predeterminada
100
AcDbLine
 10
667.3917256262442
 20
-258.9018357829919
 30
0.0
 11
667.8242157287513
 21
-257.2502182484631
 31
0.0
  0
LINE
  5
36D
330
1F
100
AcDbEntity
  8
Predeterminada
100
AcDbLine
 10
667.8242157287513
 20
-257.2502182484631
 30
0.0
 11
668.2000656429703
 21
-255.5847978777724
 31
0.0
  0
LINE
  5
36E
330
1F
100
AcDbEntity
  8
Predeterminada
100
AcDbLine
 10
668.2000656429703
 20
-255.5847978777724
 30
0.0
 11
668.5188371447141
 21
-253.907516476574
 31
0.0
  0
LINE
  5
36F
330
1F
100
AcDbEntity
  8
Predeterminada
100
AcDbLine
 10
668.5188371447141
 20
-253.907516476574
 30
0.0
 11
668.7801585606708
 21
-252.220329679953
 31
0.0
  0
LINE
  5
370
330
1F
100
AcDbEntity
  8
Predeterminada
100
AcDbLine
 10
668.7801585606708
 20
-252.220329679953
 30
0.0
 11
668.983725201759
 21
-250.5252046722424
 31
0.0
  0
LINE
  5
371
330
1F
100
AcDbEntity
  8
Predeterminada
100
AcDbLine
 10
668.983725201759
 20
-250.5252046722424
 30
0.0
 11
669.1292997183812
 21
-248.8241178933742
 31
0.0
  0
LINE
  5
372
330
1F
100
AcDbEntity
  8
Predeterminada
100
AcDbLine
 10
669.1292997183812
 20
-248.8241178933742
 30
0.0
 11
669.2167123771629
 21
-247.1190527344391
 31
0.0
  0
LINE
  5
373
330
1F
100
AcDbEntity
  8
Predeterminada
100
AcDbLine
 10
669.2167123771629
 20
-247.1190527344391
 30
0.0
 11
669.2458612588542
 21
-245.4119972251407
 31
0.0
  0
LINE
  5
374
330
1F
100
AcDbEntity
  8
Predeterminada
100
AcDbLine
 10
669.2458612588542
 20
-245.4119972251407
 30
0.0
 11
669.2458612588542
 21
-48.41199722514071
 31
0.0
  0
LINE
  5
375
330
1F
100
AcDbEntity
  8
Predeterminada
100
AcDbLine
 10
669.2458612588542
 20
-48.41199722514069
 30
0.0
 11
669.2167123771629
 21
-46.7049417158423
 31
0.0
  0
LINE
  5
376
330
1F
100
AcDbEntity
  8
Predeterminada
100
AcDbLine
 10
669.2167123771629
 20
-46.7049417158423
 30
0.0
 11
669.1292997183812
 21
-44.99987655690715
 31
0.0
  0
LINE
  5
377
330
1F
100
AcDbEntity
  8
Predeterminada
100
AcDbLine
 10
669.1292997183812
 20
-44.99987655690715
 30
0.0
 11
668.983725201759
 21
-43.29878977803898
 31
0.0
  0
LINE
  5
378
330
1F
100
AcDbEntity
  8
Predeterminada
100
AcDbLine
 10
668.983725201759
 20
-43.29878977803898
 30
0.0
 11
668.7801585606708
 21
-41.60366477032836
 31
0.0
  0
LINE
  5
379
330
1F
100
AcDbEntity
  8
Predeterminada
100
AcDbLine
 10
668.7801585606708
 20
-41.60366477032836
 30
0.0
 11
668.5188371447141
 21
-39.91647797370736
 31
0.0
  0
LINE
  5
37A
330
1F
100
AcDbEntity
  8
Predeterminada
100
AcDbLine
 10
668.5188371447141
 20
-39.91647797370736
 30
0.0
 11
668.2000656429703
 21
-38.239196572509
 31
0.0
  0
LINE
  5
37B
330
1F
100
AcDbEntity
  8
Predeterminada
100
AcDbLine
 10
668.2000656429703
 20
-38.239196572509
 30
0.0
 11
667.8242157287513
 21
-36.57377620181836
 31
0.0
  0
LINE
  5
37C
330
1F
100
AcDbEntity
  8
Predeterminada
100
AcDbLine
 10
667.8242157287513
 20
-36.57377620181836
 30
0.0
 11
667.3917256262442
 21
-34.92215866728948
 31
0.0
  0
LINE
  5
37D
330
1F
100
AcDbEntity
  8
Predeterminada
100
AcDbLine
 10
667.3917256262442
 20
-34.92215866728948
 30
0.0
 11
666.9030995995623
 21
-33.28626968108691
 31
0.0
  0
LINE
  5
37E
330
1F
100
AcDbEntity
  8
Predeterminada
100
AcDbLine
 10
666.9030995995623
 20
-33.28626968108691
 30
0.0
 11
666.3589073647953
 21
-31.66801661659139
 31
0.0
  0
LINE
  5
37F
330
1F
100
AcDbEntity
  8
Predeterminada
100
AcDbLine
 10
666.3589073647953
 20
-31.66801661659139
 30
0.0
 11
665.7597834257459
 21
-30.06928628448787
 31
0.0
  0
LINE
  5
380
330
1F
100
AcDbEntity
  8
Predeterminada
100
AcDbLine
 10
665.7597834257459
 20
-30.06928628448787
 30
0.0
 11
665.1064263341269
 21
-28.49194273282862
 31
0.0
  0
LINE
  5
381
330
1F
100
AcDbEntity
  8
Predeterminada
100
AcDbLine
 10
665.1064263341269
 20
-28.49194273282862
 30
0.0
 11
664.3995978750809
 21
-26.9378250736366
 31
0.0
  0
LINE
  5
382
330
1F
100
AcDbEntity
  8
Predeterminada
100
AcDbLine
 10
664.3995978750809
 20
-26.9378250736366
 30
0.0
 11
663.640122178973
 21
-25.40874533858309
 31
0.0
  0
LINE
  5
383
330
1F
100
AcDbEntity
  8
Predeterminada
100
AcDbLine
 10
663.640122178973
 20
-25.40874533858309
 30
0.0
 11
662.8288847604917
 21
-23.90648636623983
 31
0.0
  0
LINE
  5
384
330
1F
100
AcDbEntity
  8
Predeterminada
100
AcDbLine
 10
662.8288847604917
 20
-23.90648636623983
 30
0.0
 11
661.9668314861786
 21
-22.43279972336902
 31
0.0
  0
LINE
  5
385
330
1F
100
AcDbEntity
  8
Predeterminada
100
AcDbLine
 10
661.9668314861786
 20
-22.43279972336902
 30
0.0
 11
661.0549674715897
 21
-20.98940366267476
 31
0.0
  0
LINE
  5
386
330
1F
100
AcDbEntity
  8
Predeterminada
100
AcDbLine
 10
661.0549674715897
 20
-20.98940366267476
 30
0.0
 11
660.0943559093763
 21
-19.57798111939734
 31
0.0
  0
LINE
  5
387
330
1F
100
AcDbEntity
  8
Predeterminada
100
AcDbLine
 10
660.0943559093763
 20
-19.57798111939734
 30
0.0
 11
659.0861168296494
 21
-18.20017774908597
 31
0.0
  0
LINE
  5
388
330
1F
100
AcDbEntity
  8
Predeterminada
100
AcDbLine
 10
659.0861168296494
 20
-18.20017774908597
 30
0.0
 11
658.0314257940752
 21
-16.85760000883806
 31
0.0
  0
LINE
  5
389
330
1F
100
AcDbEntity
  8
Predeterminada
100
AcDbLine
 10
658.0314257940752
 20
-16.85760000883806
 30
0.0
 11
656.9315125252223
 21
-15.55181328424208
 31
0.0
  0
LINE
  5
38A
330
1F
100
AcDbEntity
  8
Predeterminada
100
AcDbLine
 10
656.9315125252223
 20
-15.55181328424208
 30
0.0
 11
655.7876594727604
 21
-14.284340064208
 31
0.0
  0
LINE
  5
38B
330
1F
100
AcDbEntity
  8
Predeterminada
100
AcDbLine
 10
655.7876594727604
 20
-14.284340064208
 30
0.0
 11
654.6012003181816
 21
-13.05665816581332
 31
0.0
  0
LINE
  5
38C
330
1F
100
AcDbEntity
  8
Predeterminada
100
AcDbLine
 10
654.6012003181816
 20
-13.05665816581332
 30
0.0
 11
653.3735184197869
 21
-11.87019901123449
 31
0.0
  0
LINE
  5
38D
330
1F
100
AcDbEntity
  8
Predeterminada
100
AcDbLine
 10
653.3735184197869
 20
-11.87019901123449
 30
0.0
 11
652.1060451997529
 21
-10.72634595877264
 31
0.0
  0
LINE
  5
38E
330
1F
100
AcDbEntity
  8
Predeterminada
100
AcDbLine
 10
652.1060451997529
 20
-10.72634595877264
 30
0.0
 11
650.8002584751569
 21
-9.62643268991971
 31
0.0
  0
LINE
  5
38F
330
1F
100
AcDbEntity
  8
Predeterminada
100
AcDbLine
 10
650.8002584751569
 20
-9.62643268991971
 30
0.0
 11
649.457680734909
 21
-8.57174165434548
 31
0.0
  0
LINE
  5
390
330
1F
100
AcDbEntity
  8
Predeterminada
100
AcDbLine
 10
649.457680734909
 20
-8.57174165434548
 30
0.0
 11
648.0798773645976
 21
-7.563502574618603
 31
0.0
  0
LINE
  5
391
330
1F
100
AcDbEntity
  8
Predeterminada
100
AcDbLine
 10
648.0798773645976
 20
-7.563502574618603
 30
0.0
 11
646.6684548213202
 21
-6.602891012405159
 31
0.0
  0
LINE
  5
392
330
1F
100
AcDbEntity
  8
Predeterminada
100
AcDbLine
 10
646.6684548213202
 20
-6.602891012405159
 30
0.0
 11
645.2250587606259
 21
-5.691026997816273
 31
0.0
  0
LINE
  5
393
330
1F
100
AcDbEntity
  8
Predeterminada
100
AcDbLine
 10
645.2250587606259
 20
-5.691026997816273
 30
0.0
 11
643.7513721177551
 21
-4.828973723503147
 31
0.0
  0
LINE
  5
394
330
1F
100
AcDbEntity
  8
Predeterminada
100
AcDbLine
 10
643.7513721177551
 20
-4.828973723503147
 30
0.0
 11
642.2491131454118
 21
-4.017736305021941
 31
0.0
  0
LINE
  5
395
330
1F
100
AcDbEntity
  8
Predeterminada
100
AcDbLine
 10
642.2491131454118
 20
-4.017736305021941
 30
0.0
 11
640.7200334103584
 21
-3.258260608914071
 31
0.0
  0
LINE
  5
396
330
1F
100
AcDbEntity
  8
Predeterminada
100
AcDbLine
 10
640.7200334103584
 20
-3.258260608914071
 30
0.0
 11
639.1659157511663
 21
-2.551432149868056
 31
0.0
  0
LINE
  5
397
330
1F
100
AcDbEntity
  8
Predeterminada
100
AcDbLine
 10
639.1659157511663
 20
-2.551432149868056
 30
0.0
 11
637.5885721995071
 21
-1.898075058249049
 31
0.0
  0
LINE
  5
398
330
1F
100
AcDbEntity
  8
Predeterminada
100
AcDbLine
 10
637.5885721995071
 20
-1.898075058249049
 30
0.0
 11
635.9898418674036
 21
-1.298951119199685
 31
0.0
  0
LINE
  5
399
330
1F
100
AcDbEntity
  8
Predeterminada
100
AcDbLine
 10
635.9898418674036
 20
-1.298951119199685
 30
0.0
 11
634.371588802908
 21
-0.7547588844326611
 31
0.0
  0
LINE
  5
39A
330
1F
100
AcDbEntity
  8
Predeterminada
100
AcDbLine
 10
634.371588802908
 20
-0.7547588844326611
 30
0.0
 11
632.7356998167054
 21
-0.2661328577507334
 31
0.0
  0
LINE
  5
39B
330
1F
100
AcDbEntity
  8
Predeterminada
100
AcDbLine
 10
632.7356998167054
 20
-0.2661328577507334
 30
0.0
 11
631.0840822821766
 21
0.1663572447563695
 31
0.0
  0
LINE
  5
39C
330
1F
100
AcDbEntity
  8
Predeterminada
100
AcDbLine
 10
631.0840822821766
 20
0.1663572447563695
 30
0.0
 11
629.418661911486
 21
0.5422071589754296
 31
0.0
  0
LINE
  5
39D
330
1F
100
AcDbEntity
  8
Predeterminada
100
AcDbLine
 10
629.418661911486
 20
0.5422071589754296
 30
0.0
 11
627.7413805102876
 21
0.8609786607191339
 31
0.0
  0
LINE
  5
39E
330
1F
100
AcDbEntity
  8
Predeterminada
100
AcDbLine
 10
627.7413805102876
 20
0.8609786607191339
 30
0.0
 11
626.0541937136666
 21
1.122300076675828
 31
0.0
  0
LINE
  5
39F
330
1F
100
AcDbEntity
  8
Predeterminada
100
AcDbLine
 10
626.0541937136666
 20
1.122300076675828
 30
0.0
 11
624.3590687059559
 21
1.325866717764036
 31
0.0
  0
LINE
  5
3A0
330
1F
100
AcDbEntity
  8
Predeterminada
100
AcDbLine
 10
624.3590687059559
 20
1.325866717764036
 30
0.0
 11
622.6579819270878
 21
1.471441234386248
 31
0.0
  0
LINE
  5
3A1
330
1F
100
AcDbEntity
  8
Predeterminada
100
AcDbLine
 10
622.6579819270878
 20
1.471441234386248
 30
0.0
 11
620.9529167681526
 21
1.558853893167992
 31
0.0
  0
LINE
  5
3A2
330
1F
100
AcDbEntity
  8
Predeterminada
100
AcDbLine
 10
620.9529167681526
 20
1.558853893167992
 30
0.0
 11
619.2458612588542
 21
1.588002774859291
 31
0.0
  0
LINE
  5
3A3
330
1F
100
AcDbEntity
  8
Predeterminada
100
AcDbLine
 10
619.2458612588542
 20
1.588002774859291
 30
0.0
 11
459.2458612588542
 21
1.588002774859234
 31
0.0
  0
LINE
  5
3A4
330
1F
100
AcDbEntity
  8
Predeterminada
100
AcDbLine
 10
459.2458612588542
 20
1.588002774859234
 30
0.0
 11
459.2458612588542
 21
-131.9119972251408
 31
0.0
  0
LINE
  5
3A5
330
1F
100
AcDbEntity
  8
Predeterminada
100
AcDbLine
 10
459.2458612588542
 20
-161.9119972251408
 30
0.0
 11
492.245861258854
 21
-161.9119972251409
 31
0.0
  0
LINE
  5
3A6
330
1F
100
AcDbEntity
  8
Predeterminada
100
AcDbLine
 10
492.245861258854
 20
-161.9119972251409
 30
0.0
 11
492.7636033433997
 21
-161.9030593334069
 31
0.0
  0
LINE
  5
3A7
330
1F
100
AcDbEntity
  8
Predeterminada
100
AcDbLine
 10
492.7636033433997
 20
-161.9030593334069
 30
0.0
 11
493.2807284249189
 21
-161.8762563096596
 31
0.0
  0
LINE
  5
3A8
330
1F
100
AcDbEntity
  8
Predeterminada
100
AcDbLine
 10
493.2807284249189
 20
-161.8762563096596
 30
0.0
 11
493.7966202356796
 21
-161.8316200955688
 31
0.0
  0
LINE
  5
3A9
330
1F
100
AcDbEntity
  8
Predeterminada
100
AcDbLine
 10
493.7966202356796
 20
-161.8316200955688
 30
0.0
 11
494.3106639776616
 21
-161.7692038849543
 31
0.0
  0
LINE
  5
3AA
330
1F
100
AcDbEntity
  8
Predeterminada
100
AcDbLine
 10
494.3106639776616
 20
-161.7692038849543
 30
0.0
 11
494.8222470552231
 21
-161.689082060394
 31
0.0
  0
LINE
  5
3AB
330
1F
100
AcDbEntity
  8
Predeterminada
100
AcDbLine
 10
494.8222470552231
 20
-161.689082060394
 30
0.0
 11
495.330759805143
 21
-161.5913501045802
 31
0.0
  0
LINE
  5
3AC
330
1F
100
AcDbEntity
  8
Predeterminada
100
AcDbLine
 10
495.330759805143
 20
-161.5913501045802
 30
0.0
 11
495.8355962231674
 21
-161.4761244865317
 31
0.0
  0
LINE
  5
3AD
330
1F
100
AcDbEntity
  8
Predeterminada
100
AcDbLine
 10
495.8355962231674
 20
-161.4761244865317
 30
0.0
 11
496.3361546861964
 21
-161.3435425227949
 31
0.0
  0
LINE
  5
3AE
330
1F
100
AcDbEntity
  8
Predeterminada
100
AcDbLine
 10
496.3361546861964
 20
-161.3435425227949
 30
0.0
 11
496.8318386692503
 21
-161.1937622138016
 31
0.0
  0
LINE
  5
3AF
330
1F
100
AcDbEntity
  8
Predeterminada
100
AcDbLine
 10
496.8318386692503
 20
-161.1937622138016
 30
0.0
 11
497.3220574563591
 21
-161.0269620555765
 31
0.0
  0
LINE
  5
3B0
330
1F
100
AcDbEntity
  8
Predeterminada
100
AcDbLine
 10
497.3220574563591
 20
-161.0269620555765
 30
0.0
 11
497.80622684453
 21
-160.8433408270204
 31
0.0
  0
LINE
  5
3B1
330
1F
100
AcDbEntity
  8
Predeterminada
100
AcDbLine
 10
497.80622684453
 20
-160.8433408270204
 30
0.0
 11
498.2837698399535
 21
-160.6431173530214
 31
0.0
  0
LINE
  5
3B2
330
1F
100
AcDbEntity
  8
Predeterminada
100
AcDbLine
 10
498.2837698399535
 20
-160.6431173530214
 30
0.0
 11
498.7541173456173
 21
-160.4265302436772
 31
0.0
  0
LINE
  5
3B3
330
1F
100
AcDbEntity
  8
Predeterminada
100
AcDbLine
 10
498.7541173456173
 20
-160.4265302436772
 30
0.0
 11
499.2167088395105
 21
-160.1938376099391
 31
0.0
  0
LINE
  5
3B4
330
1F
100
AcDbEntity
  8
Predeterminada
100
AcDbLine
 10
499.2167088395105
 20
-160.1938376099391
 30
0.0
 11
499.6709930426077
 21
-159.945316756016
 31
0.0
  0
LINE
  5
3B5
330
1F
100
AcDbEntity
  8
Predeterminada
100
AcDbLine
 10
499.6709930426077
 20
-159.945316756016
 30
0.0
 11
500.1164285758391
 21
-159.6812638489062
 31
0.0
  0
LINE
  5
3B6
330
1F
100
AcDbEntity
  8
Predeterminada
100
AcDbLine
 10
500.1164285758391
 20
-159.6812638489062
 30
0.0
 11
500.552484605262
 21
-159.401993565449
 31
0.0
  0
LINE
  5
3B7
330
1F
100
AcDbEntity
  8
Predeterminada
100
AcDbLine
 10
500.552484605262
 20
-159.401993565449
 30
0.0
 11
500.9786414746656
 21
-159.1078387173189
 31
0.0
  0
LINE
  5
3B8
330
1F
100
AcDbEntity
  8
Predeterminada
100
AcDbLine
 10
500.9786414746656
 20
-159.1078387173189
 30
0.0
 11
501.3943913248551
 21
-158.7991498544073
 31
0.0
  0
LINE
  5
3B9
330
1F
100
AcDbEntity
  8
Predeterminada
100
AcDbLine
 10
501.3943913248551
 20
-158.7991498544073
 30
0.0
 11
501.7992386988773
 21
-158.4762948470656
 31
0.0
  0
LINE
  5
3BA
330
1F
100
AcDbEntity
  8
Predeterminada
100
AcDbLine
 10
501.7992386988773
 20
-158.4762948470656
 30
0.0
 11
502.1927011324659
 21
-158.1396584477074
 31
0.0
  0
LINE
  5
3BB
330
1F
100
AcDbEntity
  8
Predeterminada
100
AcDbLine
 10
502.1927011324659
 20
-158.1396584477074
 30
0.0
 11
502.5743097290032
 21
-157.7896418322916
 31
0.0
  0
LINE
  5
3BC
330
1F
100
AcDbEntity
  8
Predeterminada
100
AcDbLine
 10
502.5743097290032
 20
-157.7896418322916
 30
0.0
 11
502.9436097183129
 21
-157.4266621222332
 31
0.0
  0
LINE
  5
3BD
330
1F
100
AcDbEntity
  8
Predeterminada
100
AcDbLine
 10
502.9436097183129
 20
-157.4266621222332
 30
0.0
 11
503.300160998619
 21
-157.0511518873122
 31
0.0
  0
LINE
  5
3BE
330
1F
100
AcDbEntity
  8
Predeterminada
100
AcDbLine
 10
503.300160998619
 20
-157.0511518873122
 30
0.0
 11
503.6435386610227
 21
-156.6635586301721
 31
0.0
  0
LINE
  5
3BF
330
1F
100
AcDbEntity
  8
Predeterminada
100
AcDbLine
 10
503.6435386610227
 20
-156.6635586301721
 30
0.0
 11
503.9733334958744
 21
-156.264344253022
 31
0.0
  0
LINE
  5
3C0
330
1F
100
AcDbEntity
  8
Predeterminada
100
AcDbLine
 10
503.9733334958744
 20
-156.264344253022
 30
0.0
 11
504.2891524804372
 21
-155.8539845071793
 31
0.0
  0
LINE
  5
3C1
330
1F
100
AcDbEntity
  8
Predeterminada
100
AcDbLine
 10
504.2891524804372
 20
-155.8539845071793
 30
0.0
 11
504.5906192472588
 21
-155.4329684261083
 31
0.0
  0
LINE
  5
3C2
330
1F
100
AcDbEntity
  8
Predeterminada
100
AcDbLine
 10
504.5906192472588
 20
-155.4329684261083
 30
0.0
 11
504.8773745326962
 21
-155.0017977426289
 31
0.0
  0
LINE
  5
3C3
330
1F
100
AcDbEntity
  8
Predeterminada
100
AcDbLine
 10
504.8773745326962
 20
-155.0017977426289
 30
0.0
 11
505.1490766050566
 21
-154.560986290993
 31
0.0
  0
LINE
  5
3C4
330
1F
100
AcDbEntity
  8
Predeterminada
100
AcDbLine
 10
505.1490766050566
 20
-154.560986290993
 30
0.0
 11
505.4054016718457
 21
-154.1110593945378
 31
0.0
  0
LINE
  5
3C5
330
1F
100
AcDbEntity
  8
Predeterminada
100
AcDbLine
 10
505.4054016718457
 20
-154.1110593945378
 30
0.0
 11
505.6460442656375
 21
-153.6525532396484
 31
0.0
  0
LINE
  5
3C6
330
1F
100
AcDbEntity
  8
Predeterminada
100
AcDbLine
 10
505.6460442656375
 20
-153.6525532396484
 30
0.0
 11
505.8707176081054
 21
-153.1860142367744
 31
0.0
  0
LINE
  5
3C7
330
1F
100
AcDbEntity
  8
Predeterminada
100
AcDbLine
 10
505.8707176081054
 20
-153.1860142367744
 30
0.0
 11
506.0791539517812
 21
-152.7119983692622
 31
0.0
  0
LINE
  5
3C8
330
1F
100
AcDbEntity
  8
Predeterminada
100
AcDbLine
 10
506.0791539517812
 20
-152.7119983692622
 30
0.0
 11
506.2711048991353
 21
-152.231070530779
 31
0.0
  0
LINE
  5
3C9
330
1F
100
AcDbEntity
  8
Predeterminada
100
AcDbLine
 10
506.2711048991353
 20
-152.231070530779
 30
0.0
 11
506.4463416985961
 21
-151.7438038521184
 31
0.0
  0
LINE
  5
3CA
330
1F
100
AcDbEntity
  8
Predeterminada
100
AcDbLine
 10
506.4463416985961
 20
-151.7438038521184
 30
0.0
 11
506.6046555171583
 21
-151.2507790181895
 31
0.0
  0
LINE
  5
3CB
330
1F
100
AcDbEntity
  8
Predeterminada
100
AcDbLine
 10
506.6046555171583
 20
-151.2507790181895
 30
0.0
 11
506.7458576892524
 21
-150.7525835760042
 31
0.0
  0
LINE
  5
3CC
330
1F
100
AcDbEntity
  8
Predeterminada
100
AcDbLine
 10
506.7458576892524
 20
-150.7525835760042
 30
0.0
 11
506.8697799415814
 21
-150.2498112344857
 31
0.0
  0
LINE
  5
3CD
330
1F
100
AcDbEntity
  8
Predeterminada
100
AcDbLine
 10
506.8697799415814
 20
-150.2498112344857
 30
0.0
 11
506.9762745936555
 21
-149.7430611569347
 31
0.0
  0
LINE
  5
3CE
330
1F
100
AcDbEntity
  8
Predeterminada
100
AcDbLine
 10
506.9762745936555
 20
-149.7430611569347
 30
0.0
 11
507.0652147337853
 21
-149.2329372469951
 31
0.0
  0
LINE
  5
3CF
330
1F
100
AcDbEntity
  8
Predeterminada
100
AcDbLine
 10
507.0652147337853
 20
-149.2329372469951
 30
0.0
 11
507.1364943703249
 21
-148.7200474289708
 31
0.0
  0
LINE
  5
3D0
330
1F
100
AcDbEntity
  8
Predeterminada
100
AcDbLine
 10
507.1364943703249
 20
-148.7200474289708
 30
0.0
 11
507.1900285579845
 21
-148.2050029233503
 31
0.0
  0
LINE
  5
3D1
330
1F
100
AcDbEntity
  8
Predeterminada
100
AcDbLine
 10
507.1900285579845
 20
-148.2050029233503
 30
0.0
 11
507.2257534990609
 21
-147.6884175184041
 31
0.0
  0
LINE
  5
3D2
330
1F
100
AcDbEntity
  8
Predeterminada
100
AcDbLine
 10
507.2257534990609
 20
-147.6884175184041
 30
0.0
 11
507.2436266194669
 21
-147.1709068387217
 31
0.0
  0
LINE
  5
3D3
330
1F
100
AcDbEntity
  8
Predeterminada
100
AcDbLine
 10
507.2436266194669
 20
-147.1709068387217
 30
0.0
 11
507.2436266194669
 21
-146.6530876115601
 31
0.0
  0
LINE
  5
3D4
330
1F
100
AcDbEntity
  8
Predeterminada
100
AcDbLine
 10
507.2436266194669
 20
-146.6530876115601
 30
0.0
 11
507.2257534990609
 21
-146.1355769318778
 31
0.0
  0
LINE
  5
3D5
330
1F
100
AcDbEntity
  8
Predeterminada
100
AcDbLine
 10
507.2257534990609
 20
-146.1355769318778
 30
0.0
 11
507.1900285579845
 21
-145.6189915269317
 31
0.0
  0
LINE
  5
3D6
330
1F
100
AcDbEntity
  8
Predeterminada
100
AcDbLine
 10
507.1900285579845
 20
-145.6189915269317
 30
0.0
 11
507.1364943703249
 21
-145.1039470213111
 31
0.0
  0
LINE
  5
3D7
330
1F
100
AcDbEntity
  8
Predeterminada
100
AcDbLine
 10
507.1364943703249
 20
-145.1039470213111
 30
0.0
 11
507.0652147337853
 21
-144.5910572032867
 31
0.0
  0
LINE
  5
3D8
330
1F
100
AcDbEntity
  8
Predeterminada
100
AcDbLine
 10
507.0652147337853
 20
-144.5910572032867
 30
0.0
 11
506.9762745936555
 21
-144.0809332933472
 31
0.0
  0
LINE
  5
3D9
330
1F
100
AcDbEntity
  8
Predeterminada
100
AcDbLine
 10
506.9762745936555
 20
-144.0809332933472
 30
0.0
 11
506.8697799415814
 21
-143.5741832157962
 31
0.0
  0
LINE
  5
3DA
330
1F
100
AcDbEntity
  8
Predeterminada
100
AcDbLine
 10
506.8697799415814
 20
-143.5741832157962
 30
0.0
 11
506.7458576892524
 21
-143.0714108742778
 31
0.0
  0
LINE
  5
3DB
330
1F
100
AcDbEntity
  8
Predeterminada
100
AcDbLine
 10
506.7458576892524
 20
-143.0714108742778
 30
0.0
 11
506.6046555171583
 21
-142.5732154320924
 31
0.0
  0
LINE
  5
3DC
330
1F
100
AcDbEntity
  8
Predeterminada
100
AcDbLine
 10
506.6046555171583
 20
-142.5732154320924
 30
0.0
 11
506.4463416985962
 21
-142.0801905981636
 31
0.0
  0
LINE
  5
3DD
330
1F
100
AcDbEntity
  8
Predeterminada
100
AcDbLine
 10
506.4463416985962
 20
-142.0801905981636
 30
0.0
 11
506.2711048991353
 21
-141.5929239195029
 31
0.0
  0
LINE
  5
3DE
330
1F
100
AcDbEntity
  8
Predeterminada
100
AcDbLine
 10
506.2711048991353
 20
-141.5929239195029
 30
0.0
 11
506.0791539517813
 21
-141.1119960810196
 31
0.0
  0
LINE
  5
3DF
330
1F
100
AcDbEntity
  8
Predeterminada
100
AcDbLine
 10
506.0791539517813
 20
-141.1119960810196
 30
0.0
 11
505.8707176081055
 21
-140.6379802135075
 31
0.0
  0
LINE
  5
3E0
330
1F
100
AcDbEntity
  8
Predeterminada
100
AcDbLine
 10
505.8707176081055
 20
-140.6379802135075
 30
0.0
 11
505.6460442656376
 21
-140.1714412106336
 31
0.0
  0
LINE
  5
3E1
330
1F
100
AcDbEntity
  8
Predeterminada
100
AcDbLine
 10
505.6460442656376
 20
-140.1714412106336
 30
0.0
 11
505.4054016718458
 21
-139.7129350557442
 31
0.0
  0
LINE
  5
3E2
330
1F
100
AcDbEntity
  8
Predeterminada
100
AcDbLine
 10
505.4054016718458
 20
-139.7129350557442
 30
0.0
 11
505.1490766050567
 21
-139.2630081592889
 31
0.0
  0
LINE
  5
3E3
330
1F
100
AcDbEntity
  8
Predeterminada
100
AcDbLine
 10
505.1490766050567
 20
-139.2630081592889
 30
0.0
 11
504.8773745326964
 21
-138.822196707653
 31
0.0
  0
LINE
  5
3E4
330
1F
100
AcDbEntity
  8
Predeterminada
100
AcDbLine
 10
504.8773745326964
 20
-138.822196707653
 30
0.0
 11
504.590619247259
 21
-138.3910260241736
 31
0.0
  0
LINE
  5
3E5
330
1F
100
AcDbEntity
  8
Predeterminada
100
AcDbLine
 10
504.590619247259
 20
-138.3910260241736
 30
0.0
 11
504.2891524804375
 21
-137.9700099431026
 31
0.0
  0
LINE
  5
3E6
330
1F
100
AcDbEntity
  8
Predeterminada
100
AcDbLine
 10
504.2891524804375
 20
-137.9700099431026
 30
0.0
 11
503.9733334958747
 21
-137.55965019726
 31
0.0
  0
LINE
  5
3E7
330
1F
100
AcDbEntity
  8
Predeterminada
100
AcDbLine
 10
503.9733334958747
 20
-137.55965019726
 30
0.0
 11
503.6435386610229
 21
-137.1604358201098
 31
0.0
  0
LINE
  5
3E8
330
1F
100
AcDbEntity
  8
Predeterminada
100
AcDbLine
 10
503.6435386610229
 20
-137.1604358201098
 30
0.0
 11
503.3001609986193
 21
-136.7728425629696
 31
0.0
  0
LINE
  5
3E9
330
1F
100
AcDbEntity
  8
Predeterminada
100
AcDbLine
 10
503.3001609986193
 20
-136.7728425629696
 30
0.0
 11
502.9436097183132
 21
-136.3973323280487
 31
0.0
  0
LINE
  5
3EA
330
1F
100
AcDbEntity
  8
Predeterminada
100
AcDbLine
 10
502.9436097183132
 20
-136.3973323280487
 30
0.0
 11
502.5743097290033
 21
-136.0343526179903
 31
0.0
  0
LINE
  5
3EB
330
1F
100
AcDbEntity
  8
Predeterminada
100
AcDbLine
 10
502.5743097290033
 20
-136.0343526179903
 30
0.0
 11
502.1927011324661
 21
-135.6843360025744
 31
0.0
  0
LINE
  5
3EC
330
1F
100
AcDbEntity
  8
Predeterminada
100
AcDbLine
 10
502.1927011324661
 20
-135.6843360025744
 30
0.0
 11
501.7992386988775
 21
-135.3476996032162
 31
0.0
  0
LINE
  5
3ED
330
1F
100
AcDbEntity
  8
Predeterminada
100
AcDbLine
 10
501.7992386988775
 20
-135.3476996032162
 30
0.0
 11
501.3943913248553
 21
-135.0248445958746
 31
0.0
  0
LINE
  5
3EE
330
1F
100
AcDbEntity
  8
Predeterminada
100
AcDbLine
 10
501.3943913248553
 20
-135.0248445958746
 30
0.0
 11
500.9786414746658
 21
-134.7161557329629
 31
0.0
  0
LINE
  5
3EF
330
1F
100
AcDbEntity
  8
Predeterminada
100
AcDbLine
 10
500.9786414746658
 20
-134.7161557329629
 30
0.0
 11
500.5524846052622
 21
-134.4220008848328
 31
0.0
  0
LINE
  5
3F0
330
1F
100
AcDbEntity
  8
Predeterminada
100
AcDbLine
 10
500.5524846052622
 20
-134.4220008848328
 30
0.0
 11
500.1164285758393
 21
-134.1427306013756
 31
0.0
  0
LINE
  5
3F1
330
1F
100
AcDbEntity
  8
Predeterminada
100
AcDbLine
 10
500.1164285758393
 20
-134.1427306013756
 30
0.0
 11
499.670993042608
 21
-133.8786776942658
 31
0.0
  0
LINE
  5
3F2
330
1F
100
AcDbEntity
  8
Predeterminada
100
AcDbLine
 10
499.670993042608
 20
-133.8786776942658
 30
0.0
 11
499.2167088395107
 21
-133.6301568403427
 31
0.0
  0
LINE
  5
3F3
330
1F
100
AcDbEntity
  8
Predeterminada
100
AcDbLine
 10
499.2167088395107
 20
-133.6301568403427
 30
0.0
 11
498.7541173456176
 21
-133.3974642066046
 31
0.0
  0
LINE
  5
3F4
330
1F
100
AcDbEntity
  8
Predeterminada
100
AcDbLine
 10
498.7541173456176
 20
-133.3974642066046
 30
0.0
 11
498.2837698399538
 21
-133.1808770972604
 31
0.0
  0
LINE
  5
3F5
330
1F
100
AcDbEntity
  8
Predeterminada
100
AcDbLine
 10
498.2837698399538
 20
-133.1808770972604
 30
0.0
 11
497.8062268445303
 21
-132.9806536232614
 31
0.0
  0
LINE
  5
3F6
330
1F
100
AcDbEntity
  8
Predeterminada
100
AcDbLine
 10
497.8062268445303
 20
-132.9806536232614
 30
0.0
 11
497.3220574563593
 21
-132.7970323947052
 31
0.0
  0
LINE
  5
3F7
330
1F
100
AcDbEntity
  8
Predeterminada
100
AcDbLine
 10
497.3220574563593
 20
-132.7970323947052
 30
0.0
 11
496.8318386692505
 21
-132.6302322364802
 31
0.0
  0
LINE
  5
3F8
330
1F
100
AcDbEntity
  8
Predeterminada
100
AcDbLine
 10
496.8318386692505
 20
-132.6302322364802
 30
0.0
 11
496.3361546861966
 21
-132.4804519274869
 31
0.0
  0
LINE
  5
3F9
330
1F
100
AcDbEntity
  8
Predeterminada
100
AcDbLine
 10
496.3361546861966
 20
-132.4804519274869
 30
0.0
 11
495.8355962231676
 21
-132.3478699637501
 31
0.0
  0
LINE
  5
3FA
330
1F
100
AcDbEntity
  8
Predeterminada
100
AcDbLine
 10
495.8355962231676
 20
-132.3478699637501
 30
0.0
 11
495.3307598051433
 21
-132.2326443457015
 31
0.0
  0
LINE
  5
3FB
330
1F
100
AcDbEntity
  8
Predeterminada
100
AcDbLine
 10
495.3307598051433
 20
-132.2326443457015
 30
0.0
 11
494.8222470552234
 21
-132.1349123898877
 31
0.0
  0
LINE
  5
3FC
330
1F
100
AcDbEntity
  8
Predeterminada
100
AcDbLine
 10
494.8222470552234
 20
-132.1349123898877
 30
0.0
 11
494.3106639776618
 21
-132.0547905653274
 31
0.0
  0
LINE
  5
3FD
330
1F
100
AcDbEntity
  8
Predeterminada
100
AcDbLine
 10
494.3106639776618
 20
-132.0547905653274
 30
0.0
 11
493.7966202356798
 21
-131.992374354713
 31
0.0
  0
LINE
  5
3FE
330
1F
100
AcDbEntity
  8
Predeterminada
100
AcDbLine
 10
493.7966202356798
 20
-131.992374354713
 30
0.0
 11
493.2807284249191
 21
-131.9477381406221
 31
0.0
  0
LINE
  5
3FF
330
1F
100
AcDbEntity
  8
Predeterminada
100
AcDbLine
 10
493.2807284249191
 20
-131.9477381406221
 30
0.0
 11
492.7636033433998
 21
-131.9209351168748
 31
0.0
  0
LINE
  5
400
330
1F
100
AcDbEntity
  8
Predeterminada
100
AcDbLine
 10
492.7636033433998
 20
-131.9209351168748
 30
0.0
 11
492.2458612588542
 21
-131.9119972251408
 31
0.0
  0
LINE
  5
401
330
1F
100
AcDbEntity
  8
Predeterminada
100
AcDbLine
 10
492.2458612588542
 20
-131.9119972251408
 30
0.0
 11
459.2458612588542
 21
-131.9119972251408
 31
0.0
  0
ENDSEC
  0
SECTION
  2
OBJECTS
  0
DICTIONARY
  5
C
330
0
100
AcDbDictionary
281
     1
  3
ACAD_DETAILVIEWSTYLE
350
43D
  3
ACAD_GROUP
350
D
  3
ACAD_LAYOUT
350
1A
  3
ACAD_MATERIAL
350
43
  3
ACAD_MLEADERSTYLE
350
6B
  3
ACAD_MLINESTYLE
350
17
  3
ACAD_PLOTSETTINGS
350
19
  3
ACAD_PLOTSTYLENAME
350
E
  3
ACAD_SCALELIST
350
47
  3
ACAD_SECTIONVIEWSTYLE
350
43E
  3
ACAD_TABLESTYLE
350
69
  3
ACAD_VISUALSTYLE
350
2A
  3
ACDB_RECOMPOSE_DATA
350
43A
  3
AcDbVariableDictionary
350
402
  0
SUN
  5
6D
330
29
100
AcDbSun
 90
        1
290
     0
 63
     7
421
 16777215
 40
1.0
291
     1
 91
  2455826
 92
 54000000
292
     0
 70
     2
 71
   256
280
     1
  0
DICTIONARY
  5
43D
102
{ACAD_REACTORS
330
C
102
}
330
C
100
AcDbDictionary
281
     1
  0
DICTIONARY
  5
D
102
{ACAD_REACTORS
330
C
102
}
330
C
100
AcDbDictionary
281
     1
  0
DICTIONARY
  5
1A
102
{ACAD_REACTORS
330
C
102
}
330
C
100
AcDbDictionary
281
     1
  3
Layout1
350
1E
  3
Layout2
350
26
  3
Model
350
22
  0
DICTIONARY
  5
43
102
{ACAD_REACTORS
330
C
102
}
330
C
100
AcDbDictionary
281
     1
  3
ByBlock
350
45
  3
ByLayer
350
44
  3
Global
350
46
  0
DICTIONARY
  5
6B
102
{ACAD_REACTORS
330
C
102
}
330
C
100
AcDbDictionary
281
     1
  3
Standard
350
6C
  0
DICTIONARY
  5
17
102
{ACAD_REACTORS
330
C
102
}
330
C
100
AcDbDictionary
281
     1
  3
Standard
350
18
  0
DICTIONARY
  5
19
102
{ACAD_REACTORS
330
C
102
}
330
C
100
AcDbDictionary
281
     1
  0
ACDBDICTIONARYWDFLT
  5
E
102
{ACAD_REACTORS
330
C
102
}
330
C
100
AcDbDictionary
281
     1
  3
Normal
350
F
100
AcDbDictionaryWithDefault
340
F
  0
DICTIONARY
  5
47
102
{ACAD_REACTORS
330
C
102
}
330
C
100
AcDbDictionary
281
     1
  3
A0
350
48
  3
A1
350
49
  3
A2
350
4A
  3
A3
350
4B
  3
A4
350
4C
  3
A5
350
4D
  3
A6
350
4E
  3
A7
350
4F
  3
A8
350
50
  3
A9
350
51
  3
B0
350
52
  3
B1
350
53
  3
B2
350
54
  3
B3
350
55
  3
B4
350
56
  3
B5
350
57
  3
B6
350
58
  3
B7
350
59
  3
B8
350
5A
  3
B9
350
5B
  3
C0
350
5C
  3
C1
350
5D
  3
C2
350
5E
  3
C3
350
5F
  3
C4
350
60
  3
C5
350
61
  3
C6
350
62
  3
C7
350
63
  3
C8
350
64
  3
C9
350
65
  3
D0
350
66
  3
D1
350
67
  3
D2
350
68
  0
DICTIONARY
  5
43E
102
{ACAD_REACTORS
330
C
102
}
330
C
100
AcDbDictionary
281
     1
  0
DICTIONARY
  5
69
102
{ACAD_REACTORS
330
C
102
}
330
C
100
AcDbDictionary
281
     1
  3
Standard
350
6A
  0
DICTIONARY
  5
2A
102
{ACAD_REACTORS
330
C
102
}
330
C
100
AcDbDictionary
281
     1
  3
2dWireframe
350
2F
  3
Basic
350
32
  3
Brighten
350
36
  3
ColorChange
350
3A
  3
Conceptual
350
34
  3
Dim
350
35
  3
EdgeColorOff
350
3D
  3
Facepattern
350
39
  3
Flat
350
2B
  3
FlatWithEdges
350
2C
  3
Gouraud
350
2D
  3
GouraudWithEdges
350
2E
  3
Hidden
350
31
  3
JitterOff
350
3B
  3
Linepattern
350
38
  3
OverhangOff
350
3C
  3
Realistic
350
33
  3
Shaded
350
42
  3
Shaded with edges
350
41
  3
Shades of Gray
350
3E
  3
Sketchy
350
3F
  3
Thicken
350
37
  3
Wireframe
350
30
  3
X-Ray
350
40
  0
XRECORD
  5
43A
102
{ACAD_REACTORS
330
C
102
}
330
C
100
AcDbXrecord
280
     1
 90
        1
330
6A
  0
DICTIONARY
  5
402
102
{ACAD_REACTORS
330
C
102
}
330
C
100
AcDbDictionary
281
     1
  3
CANNOSCALE
350
403
  3
CMLEADERSTYLE
350
43C
  3
CTABLESTYLE
350
43B
  3
XCLIPFRAME
350
404
  0
LAYOUT
  5
1E
102
{ACAD_REACTORS
330
1A
102
}
330
1A
100
AcDbPlotSettings
  1

  2
none_device
  4

  6

 40
0.0
 41
0.0
 42
0.0
 43
0.0
 44
0.0
 45
0.0
 46
0.0
 47
0.0
 48
0.0
 49
0.0
140
0.0
141
0.0
142
1.0
143
1.0
 70
   688
 72
     0
 73
     0
 74
     5
  7

 75
    16
 76
     0
 77
     2
 78
   300
147
1.0
148
0.0
149
0.0
100
AcDbLayout
  1
Layout1
 70
     1
 71
     1
 10
0.0
 20
0.0
 11
12.0
 21
9.0
 12
0.0
 22
0.0
 32
0.0
 14
1.000000000000000E+20
 24
1.000000000000000E+20
 34
1.000000000000000E+20
 15
-1.000000000000000E+20
 25
-1.000000000000000E+20
 35
-1.000000000000000E+20
146
0.0
 13
0.0
 23
0.0
 33
0.0
 16
1.0
 26
0.0
 36
0.0
 17
0.0
 27
1.0
 37
0.0
 76
     0
330
1B
  0
LAYOUT
  5
26
102
{ACAD_REACTORS
330
1A
102
}
330
1A
100
AcDbPlotSettings
  1

  2
none_device
  4

  6

 40
0.0
 41
0.0
 42
0.0
 43
0.0
 44
0.0
 45
0.0
 46
0.0
 47
0.0
 48
0.0
 49
0.0
140
0.0
141
0.0
142
1.0
143
1.0
 70
   688
 72
     0
 73
     0
 74
     5
  7

 75
    16
 76
     0
 77
     2
 78
   300
147
1.0
148
0.0
149
0.0
100
AcDbLayout
  1
Layout2
 70
     1
 71
     2
 10
0.0
 20
0.0
 11
0.0
 21
0.0
 12
0.0
 22
0.0
 32
0.0
 14
0.0
 24
0.0
 34
0.0
 15
0.0
 25
0.0
 35
0.0
146
0.0
 13
0.0
 23
0.0
 33
0.0
 16
1.0
 26
0.0
 36
0.0
 17
0.0
 27
1.0
 37
0.0
 76
     0
330
23
  0
LAYOUT
  5
22
102
{ACAD_REACTORS
330
1A
102
}
330
1A
100
AcDbPlotSettings
  1

  2
none_device
  4
Letter_(8.50_x_11.00_Inches)
  6

 40
6.35
 41
6.35
 42
6.35000508
 43
6.35000508
 44
215.9
 45
279.4
 46
0.0
 47
0.0
 48
0.0
 49
0.0
140
0.0
141
0.0
142
1.0
143
1.0
 70
  1712
 72
     0
 73
     0
 74
     0
  7

 75
     0
 76
     0
 77
     2
 78
   300
147
1.0
148
0.0
149
0.0
100
AcDbLayout
  1
Model
 70
     1
 71
     0
 10
0.0
 20
0.0
 11
12.0
 21
9.0
 12
0.0
 22
0.0
 32
0.0
 14
1.000000000000000E+20
 24
1.000000000000000E+20
 34
1.000000000000000E+20
 15
-1.000000000000000E+20
 25
-1.000000000000000E+20
 35
-1.000000000000000E+20
146
0.0
 13
0.0
 23
0.0
 33
0.0
 16
1.0
 26
0.0
 36
0.0
 17
0.0
 27
1.0
 37
0.0
 76
     0
330
1F
331
29
  0
MATERIAL
  5
45
102
{ACAD_REACTORS
330
43
102
}
330
43
100
AcDbMaterial
  1
ByBlock
 72
     1
 94
      127
  0
MATERIAL
  5
44
102
{ACAD_REACTORS
330
43
102
}
330
43
100
AcDbMaterial
  1
ByLayer
 72
     1
 94
      127
  0
MATERIAL
  5
46
102
{ACAD_REACTORS
330
43
102
}
330
43
100
AcDbMaterial
  1
Global
 72
     1
 94
      127
  0
MLEADERSTYLE
  5
6C
102
{ACAD_REACTORS
330
6B
102
}
102
{ACAD_XDICTIONARY
360
438
102
}
330
6B
100
AcDbMLeaderStyle
170
     2
171
     1
172
     0
 90
        2
 40
0.0
 41
0.0
173
     1
 91
-1056964608
340
14
 92
       -2
290
     1
 42
0.09
291
     1
 43
0.36
  3
Standard
341
0
 44
0.18
300

342
11
174
     1
178
     6
175
     1
176
     0
 93
-1056964608
 45
0.18
292
     0
297
     0
 46
0.18
343
0
 94
-1056964608
 47
1.0
 49
1.0
140
1.0
293
     1
141
0.0
294
     1
177
     0
142
1.0
295
     0
296
     0
143
0.125
1001
ACAD_MLEADERVER
1070
     2
  0
MLINESTYLE
  5
18
102
{ACAD_REACTORS
330
17
102
}
330
17
100
AcDbMlineStyle
  2
Standard
 70
     0
  3

 62
   256
 51
90.0
 52
90.0
 71
     2
 49
0.5
 62
   256
  6
BYLAYER
 49
-0.5
 62
   256
  6
BYLAYER
  0
ACDBPLACEHOLDER
  5
F
102
{ACAD_REACTORS
330
E
102
}
330
E
  0
SCALE
  5
48
102
{ACAD_REACTORS
330
47
102
}
330
47
100
AcDbScale
 70
     0
300
1:1
140
1.0
141
1.0
290
     1
  0
SCALE
  5
49
102
{ACAD_REACTORS
330
47
102
}
330
47
100
AcDbScale
 70
     0
300
1:2
140
1.0
141
2.0
290
     0
  0
SCALE
  5
4A
102
{ACAD_REACTORS
330
47
102
}
330
47
100
AcDbScale
 70
     0
300
1:4
140
1.0
141
4.0
290
     0
  0
SCALE
  5
4B
102
{ACAD_REACTORS
330
47
102
}
330
47
100
AcDbScale
 70
     0
300
1:5
140
1.0
141
5.0
290
     0
  0
SCALE
  5
4C
102
{ACAD_REACTORS
330
47
102
}
330
47
100
AcDbScale
 70
     0
300
1:8
140
1.0
141
8.0
290
     0
  0
SCALE
  5
4D
102
{ACAD_REACTORS
330
47
102
}
330
47
100
AcDbScale
 70
     0
300
1:10
140
1.0
141
10.0
290
     0
  0
SCALE
  5
4E
102
{ACAD_REACTORS
330
47
102
}
330
47
100
AcDbScale
 70
     0
300
1:16
140
1.0
141
16.0
290
     0
  0
SCALE
  5
4F
102
{ACAD_REACTORS
330
47
102
}
330
47
100
AcDbScale
 70
     0
300
1:20
140
1.0
141
20.0
290
     0
  0
SCALE
  5
50
102
{ACAD_REACTORS
330
47
102
}
330
47
100
AcDbScale
 70
     0
300
1:30
140
1.0
141
30.0
290
     0
  0
SCALE
  5
51
102
{ACAD_REACTORS
330
47
102
}
330
47
100
AcDbScale
 70
     0
300
1:40
140
1.0
141
40.0
290
     0
  0
SCALE
  5
52
102
{ACAD_REACTORS
330
47
102
}
330
47
100
AcDbScale
 70
     0
300
1:50
140
1.0
141
50.0
290
     0
  0
SCALE
  5
53
102
{ACAD_REACTORS
330
47
102
}
330
47
100
AcDbScale
 70
     0
300
1:100
140
1.0
141
100.0
290
     0
  0
SCALE
  5
54
102
{ACAD_REACTORS
330
47
102
}
330
47
100
AcDbScale
 70
     0
300
2:1
140
2.0
141
1.0
290
     0
  0
SCALE
  5
55
102
{ACAD_REACTORS
330
47
102
}
330
47
100
AcDbScale
 70
     0
300
4:1
140
4.0
141
1.0
290
     0
  0
SCALE
  5
56
102
{ACAD_REACTORS
330
47
102
}
330
47
100
AcDbScale
 70
     0
300
8:1
140
8.0
141
1.0
290
     0
  0
SCALE
  5
57
102
{ACAD_REACTORS
330
47
102
}
330
47
100
AcDbScale
 70
     0
300
10:1
140
10.0
141
1.0
290
     0
  0
SCALE
  5
58
102
{ACAD_REACTORS
330
47
102
}
330
47
100
AcDbScale
 70
     0
300
100:1
140
100.0
141
1.0
290
     0
  0
SCALE
  5
59
102
{ACAD_REACTORS
330
47
102
}
330
47
100
AcDbScale
 70
     0
300
1/128" = 1'-0"
140
0.0078125
141
12.0
290
     0
  0
SCALE
  5
5A
102
{ACAD_REACTORS
330
47
102
}
330
47
100
AcDbScale
 70
     0
300
1/64" = 1'-0"
140
0.015625
141
12.0
290
     0
  0
SCALE
  5
5B
102
{ACAD_REACTORS
330
47
102
}
330
47
100
AcDbScale
 70
     0
300
1/32" = 1'-0"
140
0.03125
141
12.0
290
     0
  0
SCALE
  5
5C
102
{ACAD_REACTORS
330
47
102
}
330
47
100
AcDbScale
 70
     0
300
1/16" = 1'-0"
140
0.0625
141
12.0
290
     0
  0
SCALE
  5
5D
102
{ACAD_REACTORS
330
47
102
}
330
47
100
AcDbScale
 70
     0
300
3/32" = 1'-0"
140
0.09375
141
12.0
290
     0
  0
SCALE
  5
5E
102
{ACAD_REACTORS
330
47
102
}
330
47
100
AcDbScale
 70
     0
300
1/8" = 1'-0"
140
0.125
141
12.0
290
     0
  0
SCALE
  5
5F
102
{ACAD_REACTORS
330
47
102
}
330
47
100
AcDbScale
 70
     0
300
3/16" = 1'-0"
140
0.1875
141
12.0
290
     0
  0
SCALE
  5
60
102
{ACAD_REACTORS
330
47
102
}
330
47
100
AcDbScale
 70
     0
300
1/4" = 1'-0"
140
0.25
141
12.0
290
     0
  0
SCALE
  5
61
102
{ACAD_REACTORS
330
47
102
}
330
47
100
AcDbScale
 70
     0
300
3/8" = 1'-0"
140
0.375
141
12.0
290
     0
  0
SCALE
  5
62
102
{ACAD_REACTORS
330
47
102
}
330
47
100
AcDbScale
 70
     0
300
1/2" = 1'-0"
140
0.5
141
12.0
290
     0
  0
SCALE
  5
63
102
{ACAD_REACTORS
330
47
102
}
330
47
100
AcDbScale
 70
     0
300
3/4" = 1'-0"
140
0.75
141
12.0
290
     0
  0
SCALE
  5
64
102
{ACAD_REACTORS
330
47
102
}
330
47
100
AcDbScale
 70
     0
300
1" = 1'-0"
140
1.0
141
12.0
290
     0
  0
SCALE
  5
65
102
{ACAD_REACTORS
330
47
102
}
330
47
100
AcDbScale
 70
     0
300
1-1/2" = 1'-0"
140
1.5
141
12.0
290
     0
  0
SCALE
  5
66
102
{ACAD_REACTORS
330
47
102
}
330
47
100
AcDbScale
 70
     0
300
3" = 1'-0"
140
3.0
141
12.0
290
     0
  0
SCALE
  5
67
102
{ACAD_REACTORS
330
47
102
}
330
47
100
AcDbScale
 70
     0
300
6" = 1'-0"
140
6.0
141
12.0
290
     0
  0
SCALE
  5
68
102
{ACAD_REACTORS
330
47
102
}
330
47
100
AcDbScale
 70
     0
300
1'-0" = 1'-0"
140
12.0
141
12.0
290
     0
  0
TABLESTYLE
  5
6A
102
{ACAD_REACTORS
330
69
102
}
102
{ACAD_XDICTIONARY
360
435
102
}
330
69
100
AcDbTableStyle
  3
Standard
 70
     0
 71
     0
 40
0.06
 41
0.06
280
     0
281
     0
  7
Standard
140
0.18
170
     2
 62
     0
 63
   257
283
     0
 90
        4
 91
        0
  1

274
    -2
284
     1
 64
     0
275
    -2
285
     1
 65
     0
276
    -2
286
     1
 66
     0
277
    -2
287
     1
 67
     0
278
    -2
288
     1
 68
     0
279
    -2
289
     1
 69
     0
  7
Standard
140
0.25
170
     5
 62
     0
 63
   257
283
     0
 90
        4
 91
        0
  1

274
    -2
284
     1
 64
     0
275
    -2
285
     1
 65
     0
276
    -2
286
     1
 66
     0
277
    -2
287
     1
 67
     0
278
    -2
288
     1
 68
     0
279
    -2
289
     1
 69
     0
  7
Standard
140
0.18
170
     5
 62
     0
 63
   257
283
     0
 90
        4
 91
        0
  1

274
    -2
284
     1
 64
     0
275
    -2
285
     1
 65
     0
276
    -2
286
     1
 66
     0
277
    -2
287
     1
 67
     0
278
    -2
288
     1
 68
     0
279
    -2
289
     1
 69
     0
  0
VISUALSTYLE
  5
2F
102
{ACAD_REACTORS
330
2A
102
}
102
{ACAD_XDICTIONARY
360
40D
102
}
330
2A
100
AcDbVisualStyle
  2
2dWireframe
 70
     4
 71
     0
 72
     2
 73
     0
 90
        0
 40
0.6
 41
30.0
 62
     5
 63
     7
421
 16777215
 74
     1
 91
        4
 64
     7
 65
   257
 75
     1
175
     1
 42
1.0
 92
        0
 66
   257
 43
1.0
 76
     1
 77
     6
 78
     2
 67
     7
 79
     5
170
     0
171
     0
290
     0
174
     0
 93
        1
 44
0.0
173
     0
291
     0
 45
0.0
  0
VISUALSTYLE
  5
32
102
{ACAD_REACTORS
330
2A
102
}
102
{ACAD_XDICTIONARY
360
413
102
}
330
2A
100
AcDbVisualStyle
  2
Basic
 70
     7
 71
     1
 72
     0
 73
     1
 90
        0
 40
0.6
 41
30.0
 62
     5
 63
     7
421
 16777215
 74
     0
 91
        4
 64
     7
 65
   257
 75
     1
175
     1
 42
1.0
 92
        8
 66
     7
 43
1.0
 76
     1
 77
     6
 78
     2
 67
     7
 79
     5
170
     0
171
     0
290
     0
174
     0
 93
        1
 44
0.0
173
     0
291
     1
 45
0.0
  0
VISUALSTYLE
  5
36
102
{ACAD_REACTORS
330
2A
102
}
102
{ACAD_XDICTIONARY
360
41B
102
}
330
2A
100
AcDbVisualStyle
  2
Brighten
 70
    12
 71
     2
 72
     2
 73
     0
 90
        0
 40
0.6
 41
30.0
 62
     5
 63
     7
421
 16777215
 74
     1
 91
        4
 64
     7
 65
   257
 75
     1
175
     1
 42
1.0
 92
        8
 66
     7
 43
1.0
 76
     1
 77
     6
 78
     2
 67
     7
 79
     5
170
     0
171
     0
290
     0
174
     0
 93
        1
 44
50.0
173
     0
291
     1
 45
0.0
  0
VISUALSTYLE
  5
3A
102
{ACAD_REACTORS
330
2A
102
}
102
{ACAD_XDICTIONARY
360
423
102
}
330
2A
100
AcDbVisualStyle
  2
ColorChange
 70
    16
 71
     2
 72
     2
 73
     3
 90
        0
 40
0.6
 41
30.0
 62
     5
 63
     8
421
  8421504
 74
     1
 91
        4
 64
     7
 65
   257
 75
     1
175
     1
 42
1.0
 92
        8
 66
     8
424
  8421504
 43
1.0
 76
     1
 77
     6
 78
     2
 67
     7
 79
     5
170
     0
171
     0
290
     0
174
     0
 93
        1
 44
0.0
173
     0
291
     1
 45
0.0
  0
VISUALSTYLE
  5
34
102
{ACAD_REACTORS
330
2A
102
}
102
{ACAD_XDICTIONARY
360
417
102
}
330
2A
100
AcDbVisualStyle
  2
Conceptual
 70
     9
 71
     3
 72
     2
 73
     0
 90
        0
 40
0.6
 41
30.0
 62
     5
 63
     7
421
 16777215
 74
     2
 91
        2
 64
     7
 65
   257
 75
     1
175
     1
 42
179.0
 92
        8
 66
     7
 43
1.0
 76
     1
 77
     6
 78
     2
 67
     7
 79
     3
170
     0
171
     0
290
     0
174
     0
 93
        1
 44
0.0
173
     0
291
     0
 45
0.0
  0
VISUALSTYLE
  5
35
102
{ACAD_REACTORS
330
2A
102
}
102
{ACAD_XDICTIONARY
360
419
102
}
330
2A
100
AcDbVisualStyle
  2
Dim
 70
    11
 71
     2
 72
     2
 73
     0
 90
        0
 40
0.6
 41
30.0
 62
     5
 63
     7
421
 16777215
 74
     1
 91
        4
 64
     7
 65
   257
 75
     1
175
     1
 42
1.0
 92
        8
 66
     7
 43
1.0
 76
     1
 77
     6
 78
     2
 67
     7
 79
     5
170
     0
171
     0
290
     0
174
     0
 93
        1
 44
-50.0
173
     0
291
     1
 45
0.0
  0
VISUALSTYLE
  5
3D
102
{ACAD_REACTORS
330
2A
102
}
102
{ACAD_XDICTIONARY
360
429
102
}
330
2A
100
AcDbVisualStyle
  2
EdgeColorOff
 70
    22
 71
     2
 72
     2
 73
     0
 90
        0
 40
0.6
 41
30.0
 62
     5
 63
     7
421
 16777215
 74
     1
 91
        4
 64
     7
 65
   257
 75
     1
175
     1
 42
1.0
 92
        8
 66
     7
 43
1.0
 76
     1
 77
     6
 78
     2
 67
     7
 79
     5
170
     0
171
     0
290
     0
174
     0
 93
        1
 44
0.0
173
     0
291
     1
 45
0.0
  0
VISUALSTYLE
  5
39
102
{ACAD_REACTORS
330
2A
102
}
102
{ACAD_XDICTIONARY
360
421
102
}
330
2A
100
AcDbVisualStyle
  2
Facepattern
 70
    15
 71
     2
 72
     2
 73
     0
 90
        0
 40
0.6
 41
30.0
 62
     5
 63
     7
421
 16777215
 74
     1
 91
        4
 64
     7
 65
   257
 75
     1
175
     1
 42
1.0
 92
        8
 66
     7
 43
1.0
 76
     1
 77
     6
 78
     2
 67
     7
 79
     5
170
     0
171
     0
290
     0
174
     0
 93
        1
 44
0.0
173
     0
291
     1
 45
0.0
  0
VISUALSTYLE
  5
2B
102
{ACAD_REACTORS
330
2A
102
}
102
{ACAD_XDICTIONARY
360
405
102
}
330
2A
100
AcDbVisualStyle
  2
Flat
 70
     0
 71
     2
 72
     1
 73
     1
 90
        2
 40
0.6
 41
30.0
 62
     5
 63
     7
421
 16777215
 74
     0
 91
        0
 64
     7
 65
   257
 75
     1
175
     1
 42
1.0
 92
        8
 66
     7
 43
1.0
 76
     1
 77
     6
 78
     2
 67
     7
 79
     5
170
     0
171
     0
290
     0
174
     0
 93
       13
 44
0.0
173
     0
291
     1
 45
0.0
  0
VISUALSTYLE
  5
2C
102
{ACAD_REACTORS
330
2A
102
}
102
{ACAD_XDICTIONARY
360
407
102
}
330
2A
100
AcDbVisualStyle
  2
FlatWithEdges
 70
     1
 71
     2
 72
     1
 73
     1
 90
        2
 40
0.6
 41
30.0
 62
     5
 63
     7
421
 16777215
 74
     1
 91
        0
 64
     7
 65
   257
 75
     1
175
     1
 42
1.0
 92
        0
 66
   257
 43
1.0
 76
     1
 77
     6
 78
     2
 67
     7
 79
     5
170
     0
171
     0
290
     0
174
     0
 93
       13
 44
0.0
173
     0
291
     1
 45
0.0
  0
VISUALSTYLE
  5
2D
102
{ACAD_REACTORS
330
2A
102
}
102
{ACAD_XDICTIONARY
360
409
102
}
330
2A
100
AcDbVisualStyle
  2
Gouraud
 70
     2
 71
     2
 72
     2
 73
     1
 90
        2
 40
0.6
 41
30.0
 62
     5
 63
     7
421
 16777215
 74
     0
 91
        0
 64
     7
 65
   257
 75
     1
175
     1
 42
1.0
 92
        0
 66
     7
 43
1.0
 76
     1
 77
     6
 78
     2
 67
     7
 79
     5
170
     0
171
     0
290
     0
174
     0
 93
       13
 44
0.0
173
     0
291
     1
 45
0.0
  0
VISUALSTYLE
  5
2E
102
{ACAD_REACTORS
330
2A
102
}
102
{ACAD_XDICTIONARY
360
40B
102
}
330
2A
100
AcDbVisualStyle
  2
GouraudWithEdges
 70
     3
 71
     2
 72
     2
 73
     1
 90
        2
 40
0.6
 41
30.0
 62
     5
 63
     7
421
 16777215
 74
     1
 91
        0
 64
     7
 65
   257
 75
     1
175
     1
 42
1.0
 92
        0
 66
   257
 43
1.0
 76
     1
 77
     6
 78
     2
 67
     7
 79
     5
170
     0
171
     0
290
     0
174
     0
 93
       13
 44
0.0
173
     0
291
     1
 45
0.0
  0
VISUALSTYLE
  5
31
102
{ACAD_REACTORS
330
2A
102
}
102
{ACAD_XDICTIONARY
360
411
102
}
330
2A
100
AcDbVisualStyle
  2
Hidden
 70
     6
 71
     1
 72
     2
 73
     2
 90
        0
 40
0.6
 41
30.0
 62
     5
 63
     7
421
 16777215
 74
     2
 91
        2
 64
     7
 65
   257
 75
     2
175
     1
 42
40.0
 92
        0
 66
   257
 43
1.0
 76
     1
 77
     6
 78
     2
 67
     7
 79
     3
170
     0
171
     0
290
     0
174
     0
 93
        1
 44
0.0
173
     0
291
     0
 45
0.0
  0
VISUALSTYLE
  5
3B
102
{ACAD_REACTORS
330
2A
102
}
102
{ACAD_XDICTIONARY
360
425
102
}
330
2A
100
AcDbVisualStyle
  2
JitterOff
 70
    20
 71
     2
 72
     2
 73
     0
 90
        0
 40
0.6
 41
30.0
 62
     5
 63
     7
421
 16777215
 74
     1
 91
        4
 64
     7
 65
   257
 75
     1
175
     1
 42
1.0
 92
       10
 66
     7
 43
1.0
 76
     1
 77
     6
 78
     2
 67
     7
 79
     5
170
     0
171
     0
290
     0
174
     0
 93
        1
 44
0.0
173
     0
291
     1
 45
0.0
  0
VISUALSTYLE
  5
38
102
{ACAD_REACTORS
330
2A
102
}
102
{ACAD_XDICTIONARY
360
41F
102
}
330
2A
100
AcDbVisualStyle
  2
Linepattern
 70
    14
 71
     2
 72
     2
 73
     0
 90
        0
 40
0.6
 41
30.0
 62
     5
 63
     7
421
 16777215
 74
     1
 91
        4
 64
     7
 65
   257
 75
     7
175
     7
 42
1.0
 92
        8
 66
     7
 43
1.0
 76
     1
 77
     6
 78
     2
 67
     7
 79
     5
170
     0
171
     0
290
     0
174
     0
 93
        1
 44
0.0
173
     0
291
     1
 45
0.0
  0
VISUALSTYLE
  5
3C
102
{ACAD_REACTORS
330
2A
102
}
102
{ACAD_XDICTIONARY
360
427
102
}
330
2A
100
AcDbVisualStyle
  2
OverhangOff
 70
    21
 71
     2
 72
     2
 73
     0
 90
        0
 40
0.6
 41
30.0
 62
     5
 63
     7
421
 16777215
 74
     1
 91
        4
 64
     7
 65
   257
 75
     1
175
     1
 42
1.0
 92
        9
 66
     7
 43
1.0
 76
     1
 77
     6
 78
     2
 67
     7
 79
     5
170
     0
171
     0
290
     0
174
     0
 93
        1
 44
0.0
173
     0
291
     1
 45
0.0
  0
VISUALSTYLE
  5
33
102
{ACAD_REACTORS
330
2A
102
}
102
{ACAD_XDICTIONARY
360
415
102
}
330
2A
100
AcDbVisualStyle
  2
Realistic
 70
     8
 71
     2
 72
     3
 73
     0
 90
        2
 40
0.6
 41
30.0
 62
     5
 63
     7
421
 16777215
 74
     0
 91
        0
 64
     7
 65
   257
 75
     1
175
     1
 42
1.0
 92
        8
 66
   257
 43
1.0
 76
     1
 77
     6
 78
     2
 67
     7
 79
     3
170
     0
171
     0
290
     0
174
     0
 93
       13
 44
0.0
173
     0
291
     0
 45
0.0
  0
VISUALSTYLE
  5
42
102
{ACAD_REACTORS
330
2A
102
}
102
{ACAD_XDICTIONARY
360
433
102
}
330
2A
100
AcDbVisualStyle
  2
Shaded
 70
    27
 71
     2
 72
     2
 73
     1
 90
        2
 40
0.6
 41
30.0
 62
     5
 63
     7
421
 16777215
 74
     0
 91
        4
 64
     7
 65
   257
 75
     1
175
     1
 42
1.0
 92
        8
 66
   257
 43
1.0
 76
     1
 77
     6
 78
     2
 67
     8
425
  7895160
 79
     3
170
     0
171
     0
290
     0
174
     0
 93
        5
 44
0.0
173
     0
291
     0
 45
0.0
  0
VISUALSTYLE
  5
41
102
{ACAD_REACTORS
330
2A
102
}
102
{ACAD_XDICTIONARY
360
431
102
}
330
2A
100
AcDbVisualStyle
  2
Shaded with edges
 70
    26
 71
     2
 72
     2
 73
     1
 90
        2
 40
0.6
 41
30.0
 62
     5
 63
     7
421
 16777215
 74
     1
 91
       10
 64
     7
 65
   257
 75
     2
175
     1
 42
1.0
 92
        8
 66
   257
 43
1.0
 76
     1
 77
     6
 78
     2
 67
     7
 79
     3
170
     0
171
     0
290
     0
174
     0
 93
        5
 44
0.0
173
     0
291
     0
 45
0.0
  0
VISUALSTYLE
  5
3E
102
{ACAD_REACTORS
330
2A
102
}
102
{ACAD_XDICTIONARY
360
42B
102
}
330
2A
100
AcDbVisualStyle
  2
Shades of Gray
 70
    23
 71
     2
 72
     2
 73
     3
 90
        0
 40
0.6
 41
30.0
 62
     5
 63
     7
421
 16777215
 74
     2
 91
        2
 64
     7
 65
     7
 75
     1
175
     1
 42
40.0
 92
        8
 66
     7
 43
1.0
 76
     1
 77
     6
 78
     2
 67
     7
 79
     3
170
     0
171
     0
290
     0
174
     0
 93
        1
 44
0.0
173
     0
291
     0
 45
0.0
  0
VISUALSTYLE
  5
3F
102
{ACAD_REACTORS
330
2A
102
}
102
{ACAD_XDICTIONARY
360
42D
102
}
330
2A
100
AcDbVisualStyle
  2
Sketchy
 70
    24
 71
     1
 72
     2
 73
     2
 90
        0
 40
0.6
 41
30.0
 62
     5
 63
     7
421
 16777215
 74
     2
 91
        2
 64
     7
 65
     7
 75
     1
175
     1
 42
40.0
 92
       11
 66
     7
 43
1.0
 76
     1
 77
     6
 78
     2
 67
     7
 79
     6
170
     0
171
     0
290
     0
174
     0
 93
        1
 44
0.0
173
     0
291
     0
 45
0.0
  0
VISUALSTYLE
  5
37
102
{ACAD_REACTORS
330
2A
102
}
102
{ACAD_XDICTIONARY
360
41D
102
}
330
2A
100
AcDbVisualStyle
  2
Thicken
 70
    13
 71
     2
 72
     2
 73
     0
 90
        0
 40
0.6
 41
30.0
 62
     5
 63
     7
421
 16777215
 74
     1
 91
        4
 64
     7
 65
   257
 75
     1
175
     1
 42
1.0
 92
       12
 66
     7
 43
1.0
 76
     1
 77
     6
 78
     2
 67
     7
 79
     5
170
     0
171
     0
290
     0
174
     0
 93
        1
 44
0.0
173
     0
291
     1
 45
0.0
  0
VISUALSTYLE
  5
30
102
{ACAD_REACTORS
330
2A
102
}
102
{ACAD_XDICTIONARY
360
40F
102
}
330
2A
100
AcDbVisualStyle
  2
Wireframe
 70
     5
 71
     0
 72
     2
 73
     0
 90
        0
 40
0.6
 41
30.0
 62
     5
 63
     7
421
 16777215
 74
     1
 91
        4
 64
     7
 65
   257
 75
     1
175
     1
 42
1.0
 92
        0
 66
   257
 43
1.0
 76
     1
 77
     6
 78
     2
 67
     7
 79
     3
170
     0
171
     0
290
     0
174
     0
 93
        1
 44
0.0
173
     0
291
     0
 45
0.0
  0
VISUALSTYLE
  5
40
102
{ACAD_REACTORS
330
2A
102
}
102
{ACAD_XDICTIONARY
360
42F
102
}
330
2A
100
AcDbVisualStyle
  2
X-Ray
 70
    25
 71
     2
 72
     2
 73
     1
 90
        1
 40
0.5
 41
30.0
 62
     5
 63
     7
421
 16777215
 74
     1
 91
        0
 64
     7
 65
   257
 75
     1
175
     1
 42
1.0
 92
        8
 66
     7
 43
1.0
 76
     1
 77
     6
 78
     2
 67
     7
 79
     3
170
     0
171
     0
290
     0
174
     0
 93
       13
 44
0.0
173
     0
291
     0
 45
0.0
  0
DICTIONARYVAR
  5
403
102
{ACAD_REACTORS
330
402
102
}
330
402
100
DictionaryVariables
280
     0
  1
1:1
  0
DICTIONARYVAR
  5
43C
102
{ACAD_REACTORS
330
402
102
}
330
402
100
DictionaryVariables
280
     0
  1
Standard
  0
DICTIONARYVAR
  5
43B
102
{ACAD_REACTORS
330
402
102
}
330
402
100
DictionaryVariables
280
     0
  1
Standard
  0
DICTIONARYVAR
  5
404
102
{ACAD_REACTORS
330
402
102
}
330
402
100
DictionaryVariables
280
     0
  1
2
  0
DICTIONARY
  5
438
330
6C
100
AcDbDictionary
280
     1
281
     1
  3
ACAD_XREC_ROUNDTRIP
360
439
  0
DICTIONARY
  5
435
330
6A
100
AcDbDictionary
280
     1
281
     1
  3
ACAD_ROUNDTRIP_2008_TABLESTYLE_CELLSTYLEMAP
360
436
  0
DICTIONARY
  5
40D
330
2F
100
AcDbDictionary
280
     1
281
     1
  3
ACAD_XREC_ROUNDTRIP
360
40E
  0
DICTIONARY
  5
413
330
32
100
AcDbDictionary
280
     1
281
     1
  3
ACAD_XREC_ROUNDTRIP
360
414
  0
DICTIONARY
  5
41B
330
36
100
AcDbDictionary
280
     1
281
     1
  3
ACAD_XREC_ROUNDTRIP
360
41C
  0
DICTIONARY
  5
423
330
3A
100
AcDbDictionary
280
     1
281
     1
  3
ACAD_XREC_ROUNDTRIP
360
424
  0
DICTIONARY
  5
417
330
34
100
AcDbDictionary
280
     1
281
     1
  3
ACAD_XREC_ROUNDTRIP
360
418
  0
DICTIONARY
  5
419
330
35
100
AcDbDictionary
280
     1
281
     1
  3
ACAD_XREC_ROUNDTRIP
360
41A
  0
DICTIONARY
  5
429
330
3D
100
AcDbDictionary
280
     1
281
     1
  3
ACAD_XREC_ROUNDTRIP
360
42A
  0
DICTIONARY
  5
421
330
39
100
AcDbDictionary
280
     1
281
     1
  3
ACAD_XREC_ROUNDTRIP
360
422
  0
DICTIONARY
  5
405
330
2B
100
AcDbDictionary
280
     1
281
     1
  3
ACAD_XREC_ROUNDTRIP
360
406
  0
DICTIONARY
  5
407
330
2C
100
AcDbDictionary
280
     1
281
     1
  3
ACAD_XREC_ROUNDTRIP
360
408
  0
DICTIONARY
  5
409
330
2D
100
AcDbDictionary
280
     1
281
     1
  3
ACAD_XREC_ROUNDTRIP
360
40A
  0
DICTIONARY
  5
40B
330
2E
100
AcDbDictionary
280
     1
281
     1
  3
ACAD_XREC_ROUNDTRIP
360
40C
  0
DICTIONARY
  5
411
330
31
100
AcDbDictionary
280
     1
281
     1
  3
ACAD_XREC_ROUNDTRIP
360
412
  0
DICTIONARY
  5
425
330
3B
100
AcDbDictionary
280
     1
281
     1
  3
ACAD_XREC_ROUNDTRIP
360
426
  0
DICTIONARY
  5
41F
330
38
100
AcDbDictionary
280
     1
281
     1
  3
ACAD_XREC_ROUNDTRIP
360
420
  0
DICTIONARY
  5
427
330
3C
100
AcDbDictionary
280
     1
281
     1
  3
ACAD_XREC_ROUNDTRIP
360
428
  0
DICTIONARY
  5
415
330
33
100
AcDbDictionary
280
     1
281
     1
  3
ACAD_XREC_ROUNDTRIP
360
416
  0
DICTIONARY
  5
433
330
42
100
AcDbDictionary
280
     1
281
     1
  3
ACAD_XREC_ROUNDTRIP
360
434
  0
DICTIONARY
  5
431
330
41
100
AcDbDictionary
280
     1
281
     1
  3
ACAD_XREC_ROUNDTRIP
360
432
  0
DICTIONARY
  5
42B
330
3E
100
AcDbDictionary
280
     1
281
     1
  3
ACAD_XREC_ROUNDTRIP
360
42C
  0
DICTIONARY
  5
42D
330
3F
100
AcDbDictionary
280
     1
281
     1
  3
ACAD_XREC_ROUNDTRIP
360
42E
  0
DICTIONARY
  5
41D
330
37
100
AcDbDictionary
280
     1
281
     1
  3
ACAD_XREC_ROUNDTRIP
360
41E
  0
DICTIONARY
  5
40F
330
30
100
AcDbDictionary
280
     1
281
     1
  3
ACAD_XREC_ROUNDTRIP
360
410
  0
DICTIONARY
  5
42F
330
40
100
AcDbDictionary
280
     1
281
     1
  3
ACAD_XREC_ROUNDTRIP
360
430
  0
XRECORD
  5
439
102
{ACAD_REACTORS
330
438
102
}
330
438
100
AcDbXrecord
280
     1
102
ACAD_ROUNDTRIP_2010_MLEADER_STYLE
  0
CELLSTYLEMAP
  5
436
102
{ACAD_REACTORS
330
435
102
}
330
435
100
AcDbCellStyleMap
 90
        3
300
CELLSTYLE
  1
TABLEFORMAT_BEGIN
 90
        5
170
     1
 91
        0
 92
    32768
 62
   257
 93
        1
300
CONTENTFORMAT
  1
CONTENTFORMAT_BEGIN
 90
        0
 91
        0
 92
        4
 93
        0
300

 40
0.0
140
1.0
 94
        5
 62
     0
340
11
144
0.25
309
CONTENTFORMAT_END
171
     1
301
MARGIN
  1
CELLMARGIN_BEGIN
 40
0.06
 40
0.06
 40
0.06
 40
0.06
 40
0.06
 40
0.06
309
CELLMARGIN_END
 94
        6
 95
        1
302
GRIDFORMAT
  1
GRIDFORMAT_BEGIN
 90
        0
 91
        1
 62
     0
 92
       -2
340
14
 93
        0
 40
0.045
309
GRIDFORMAT_END
 95
        2
302
GRIDFORMAT
  1
GRIDFORMAT_BEGIN
 90
        0
 91
        1
 62
     0
 92
       -2
340
14
 93
        0
 40
0.045
309
GRIDFORMAT_END
 95
        4
302
GRIDFORMAT
  1
GRIDFORMAT_BEGIN
 90
        0
 91
        1
 62
     0
 92
       -2
340
14
 93
        0
 40
0.045
309
GRIDFORMAT_END
 95
        8
302
GRIDFORMAT
  1
GRIDFORMAT_BEGIN
 90
        0
 91
        1
 62
     0
 92
       -2
340
14
 93
        0
 40
0.045
309
GRIDFORMAT_END
 95
       16
302
GRIDFORMAT
  1
GRIDFORMAT_BEGIN
 90
        0
 91
        1
 62
     0
 92
       -2
340
14
 93
        0
 40
0.045
309
GRIDFORMAT_END
 95
       32
302
GRIDFORMAT
  1
GRIDFORMAT_BEGIN
 90
        0
 91
        1
 62
     0
 92
       -2
340
14
 93
        0
 40
0.045
309
GRIDFORMAT_END
309
TABLEFORMAT_END
  1
CELLSTYLE_BEGIN
 90
        1
 91
        1
300
_TITLE
309
CELLSTYLE_END
300
CELLSTYLE
  1
TABLEFORMAT_BEGIN
 90
        5
170
     1
 91
        0
 92
        0
 62
   257
 93
        1
300
CONTENTFORMAT
  1
CONTENTFORMAT_BEGIN
 90
        0
 91
        0
 92
        4
 93
        0
300

 40
0.0
140
1.0
 94
        5
 62
     0
340
11
144
0.18
309
CONTENTFORMAT_END
171
     1
301
MARGIN
  1
CELLMARGIN_BEGIN
 40
0.06
 40
0.06
 40
0.06
 40
0.06
 40
0.06
 40
0.06
309
CELLMARGIN_END
 94
        6
 95
        1
302
GRIDFORMAT
  1
GRIDFORMAT_BEGIN
 90
        0
 91
        1
 62
     0
 92
       -2
340
14
 93
        0
 40
0.045
309
GRIDFORMAT_END
 95
        2
302
GRIDFORMAT
  1
GRIDFORMAT_BEGIN
 90
        0
 91
        1
 62
     0
 92
       -2
340
14
 93
        0
 40
0.045
309
GRIDFORMAT_END
 95
        4
302
GRIDFORMAT
  1
GRIDFORMAT_BEGIN
 90
        0
 91
        1
 62
     0
 92
       -2
340
14
 93
        0
 40
0.045
309
GRIDFORMAT_END
 95
        8
302
GRIDFORMAT
  1
GRIDFORMAT_BEGIN
 90
        0
 91
        1
 62
     0
 92
       -2
340
14
 93
        0
 40
0.045
309
GRIDFORMAT_END
 95
       16
302
GRIDFORMAT
  1
GRIDFORMAT_BEGIN
 90
        0
 91
        1
 62
     0
 92
       -2
340
14
 93
        0
 40
0.045
309
GRIDFORMAT_END
 95
       32
302
GRIDFORMAT
  1
GRIDFORMAT_BEGIN
 90
        0
 91
        1
 62
     0
 92
       -2
340
14
 93
        0
 40
0.045
309
GRIDFORMAT_END
309
TABLEFORMAT_END
  1
CELLSTYLE_BEGIN
 90
        2
 91
        1
300
_HEADER
309
CELLSTYLE_END
300
CELLSTYLE
  1
TABLEFORMAT_BEGIN
 90
        5
170
     1
 91
        0
 92
        0
 62
   257
 93
        1
300
CONTENTFORMAT
  1
CONTENTFORMAT_BEGIN
 90
        0
 91
        0
 92
        4
 93
        0
300

 40
0.0
140
1.0
 94
        2
 62
     0
340
11
144
0.18
309
CONTENTFORMAT_END
171
     1
301
MARGIN
  1
CELLMARGIN_BEGIN
 40
0.06
 40
0.06
 40
0.06
 40
0.06
 40
0.06
 40
0.06
309
CELLMARGIN_END
 94
        6
 95
        1
302
GRIDFORMAT
  1
GRIDFORMAT_BEGIN
 90
        0
 91
        1
 62
     0
 92
       -2
340
14
 93
        0
 40
0.045
309
GRIDFORMAT_END
 95
        2
302
GRIDFORMAT
  1
GRIDFORMAT_BEGIN
 90
        0
 91
        1
 62
     0
 92
       -2
340
14
 93
        0
 40
0.045
309
GRIDFORMAT_END
 95
        4
302
GRIDFORMAT
  1
GRIDFORMAT_BEGIN
 90
        0
 91
        1
 62
     0
 92
       -2
340
14
 93
        0
 40
0.045
309
GRIDFORMAT_END
 95
        8
302
GRIDFORMAT
  1
GRIDFORMAT_BEGIN
 90
        0
 91
        1
 62
     0
 92
       -2
340
14
 93
        0
 40
0.045
309
GRIDFORMAT_END
 95
       16
302
GRIDFORMAT
  1
GRIDFORMAT_BEGIN
 90
        0
 91
        1
 62
     0
 92
       -2
340
14
 93
        0
 40
0.045
309
GRIDFORMAT_END
 95
       32
302
GRIDFORMAT
  1
GRIDFORMAT_BEGIN
 90
        0
 91
        1
 62
     0
 92
       -2
340
14
 93
        0
 40
0.045
309
GRIDFORMAT_END
309
TABLEFORMAT_END
  1
CELLSTYLE_BEGIN
 90
        3
 91
        2
300
_DATA
309
CELLSTYLE_END
  0
XRECORD
  5
40E
102
{ACAD_REACTORS
330
40D
102
}
330
40D
100
AcDbXrecord
280
     1
102
RTVSPropertyOp0
 70
     1
102
RTVSPropertyOp1
 70
     1
102
RTVSPropertyOp2
 70
     1
102
RTVSPropertyOp3
 70
     1
102
RTVSPropertyOp4
 70
     1
102
RTVSPropertyOp5
 70
     1
102
RTVSPropertyOp6
 70
     1
102
RTVSPropertyOp7
 70
     1
102
RTVSPropertyOp8
 70
     1
102
RTVSPropertyOp9
 70
     1
102
RTVSPropertyOp10
 70
     1
102
RTVSPropertyOp11
 70
     1
102
RTVSPropertyOp12
 70
     1
102
RTVSPropertyOp13
 70
     1
102
RTVSPropertyOp14
 70
     1
102
RTVSPropertyOp15
 70
     1
102
RTVSPropertyOp16
 70
     1
102
RTVSPropertyOp17
 70
     1
102
RTVSPropertyOp18
 70
     1
102
RTVSPropertyOp19
 70
     1
102
RTVSPropertyOp20
 70
     1
102
RTVSPropertyOp21
 70
     1
102
RTVSPropertyOp22
 70
     1
102
RTVSPropertyOp23
 70
     1
102
RTVSPropertyOp24
 70
     1
102
RTVSPropertyOp25
 70
     1
102
RTVSPropertyOp26
 70
     1
102
RTVSPropertyOp27
 70
     1
102
RTVSPropertyOp28
 70
     1
102
RTVSPropertyOp29
 70
     1
102
RTVSPropertyOp30
 70
     1
102
RTVSPropertyOp31
 70
     1
102
RTVSPropertyOp32
 70
     1
102
RTVSPropertyOp33
 70
     1
102
RTVSPropertyOp34
 70
     1
102
RTVSPropertyOp35
 70
     1
102
RTVSPropertyOp36
 70
     1
102
RTVSPropertyOp37
 70
     1
102
RTVSPropertyOp38
 70
     1
102
RTVSPropertyOp39
 70
     1
102
RTVSPropertyOp40
 70
     1
102
RTVSPropertyOp41
 70
     1
102
RTVSPropertyOp42
 70
     1
102
RTVSPropertyOp43
 70
     1
102
RTVSPropertyOp44
 70
     1
102
RTVSPropertyOp45
 70
     1
102
RTVSPropertyOp46
 70
     1
102
RTVSPropertyOp47
 70
     1
102
RTVSPropertyOp48
 70
     1
102
RTVSPropertyOp49
 70
     1
102
RTVSPropertyOp50
 70
     1
102
RTVSPropertyOp51
 70
     0
102
RTVSPropertyOp52
 70
     0
102
RTVSPropertyOp53
 70
     1
102
RTVSPropertyOp54
 70
     1
102
RTVSPropertyOp55
 70
     1
102
RTVSPropertyOp56
 70
     1
102
RTVSPropertyOp57
 70
     1
102
RTVSPost2010Prop28
280
     1
102
RTVSPost2010PropOp28
 70
     1
102
RTVSPost2010Prop29
280
     1
102
RTVSPost2010PropOp29
 70
     1
102
RTVSPost2010Prop30
280
     0
102
RTVSPost2010PropOp30
 70
     1
102
RTVSPost2010Prop31
280
     0
102
RTVSPost2010PropOp31
 70
     1
102
RTVSPost2010Prop32
280
     0
102
RTVSPost2010PropOp32
 70
     1
102
RTVSPost2010Prop33
280
     0
102
RTVSPost2010PropOp33
 70
     1
102
RTVSPost2010Prop34
280
     0
102
RTVSPost2010PropOp34
 70
     1
102
RTVSPost2010Prop35
280
     0
102
RTVSPost2010PropOp35
 70
     1
102
RTVSPost2010Prop36
280
     0
102
RTVSPost2010PropOp36
 70
     1
102
RTVSPost2010Prop37
 90
       50
102
RTVSPost2010PropOp37
 70
     1
102
RTVSPost2010Prop38
140
0.0
102
RTVSPost2010PropOp38
 70
     1
102
RTVSPost2010Prop39
140
1.0
102
RTVSPost2010PropOp39
 70
     1
102
RTVSPost2010Prop40
 90
        0
102
RTVSPost2010PropOp40
 70
     1
102
RTVSPost2010Prop41ColorIndex
 90
       18
102
RTVSPost2010Prop41ColorRGB
 90
        0
102
RTVSPost2010PropOp41
 70
     1
102
RTVSPost2010Prop42
 90
       50
102
RTVSPost2010PropOp42
 70
     1
102
RTVSPost2010Prop43
 90
        3
102
RTVSPost2010PropOp43
 70
     1
102
RTVSPost2010Prop44ColorIndex
 90
        5
102
RTVSPost2010Prop44ColorRGB
 90
      255
102
RTVSPost2010PropOp44
 70
     1
102
RTVSPost2010Prop45
280
     0
102
RTVSPost2010PropOp45
 70
     1
102
RTVSPost2010Prop46
 90
       50
102
RTVSPost2010PropOp46
 70
     1
102
RTVSPost2010Prop47
 90
       50
102
RTVSPost2010PropOp47
 70
     1
102
RTVSPost2010Prop48
 90
       50
102
RTVSPost2010PropOp48
 70
     1
102
RTVSPost2010Prop49
280
     0
102
RTVSPost2010PropOp49
 70
     1
102
RTVSPost2010Prop50
 90
       50
102
RTVSPost2010PropOp50
 70
     1
102
RTVSPost2010Prop51ColorIndex
 90
      256
102
RTVSPost2010Prop51ColorRGB
 90
-16777216
102
RTVSPost2010PropOp51
 70
     0
102
RTVSPost2010Prop52
140
1.0
102
RTVSPost2010PropOp52
 70
     0
102
RTVSPost2010Prop53
 90
        2
102
RTVSPost2010PropOp53
 70
     1
102
RTVSPost2010Prop54
  1
strokes_ogs.tif
102
RTVSPost2010PropOp54
 70
     1
102
RTVSPost2010Prop55
280
     0
102
RTVSPost2010PropOp55
 70
     1
102
RTVSPost2010Prop56
140
1.0
102
RTVSPost2010PropOp56
 70
     1
102
RTVSPost2010Prop57
140
1.0
102
RTVSPost2010PropOp57
 70
     1
  0
XRECORD
  5
414
102
{ACAD_REACTORS
330
413
102
}
330
413
100
AcDbXrecord
280
     1
102
RTVSPropertyOp0
 70
     1
102
RTVSPropertyOp1
 70
     1
102
RTVSPropertyOp2
 70
     1
102
RTVSPropertyOp3
 70
     1
102
RTVSPropertyOp4
 70
     1
102
RTVSPropertyOp5
 70
     1
102
RTVSPropertyOp6
 70
     1
102
RTVSPropertyOp7
 70
     1
102
RTVSPropertyOp8
 70
     1
102
RTVSPropertyOp9
 70
     1
102
RTVSPropertyOp10
 70
     1
102
RTVSPropertyOp11
 70
     1
102
RTVSPropertyOp12
 70
     1
102
RTVSPropertyOp13
 70
     1
102
RTVSPropertyOp14
 70
     1
102
RTVSPropertyOp15
 70
     1
102
RTVSPropertyOp16
 70
     1
102
RTVSPropertyOp17
 70
     1
102
RTVSPropertyOp18
 70
     1
102
RTVSPropertyOp19
 70
     1
102
RTVSPropertyOp20
 70
     1
102
RTVSPropertyOp21
 70
     1
102
RTVSPropertyOp22
 70
     1
102
RTVSPropertyOp23
 70
     1
102
RTVSPropertyOp24
 70
     1
102
RTVSPropertyOp25
 70
     1
102
RTVSPropertyOp26
 70
     1
102
RTVSPropertyOp27
 70
     1
102
RTVSPropertyOp28
 70
     1
102
RTVSPropertyOp29
 70
     1
102
RTVSPropertyOp30
 70
     1
102
RTVSPropertyOp31
 70
     1
102
RTVSPropertyOp32
 70
     1
102
RTVSPropertyOp33
 70
     1
102
RTVSPropertyOp34
 70
     1
102
RTVSPropertyOp35
 70
     1
102
RTVSPropertyOp36
 70
     1
102
RTVSPropertyOp37
 70
     1
102
RTVSPropertyOp38
 70
     1
102
RTVSPropertyOp39
 70
     1
102
RTVSPropertyOp40
 70
     1
102
RTVSPropertyOp41
 70
     1
102
RTVSPropertyOp42
 70
     1
102
RTVSPropertyOp43
 70
     1
102
RTVSPropertyOp44
 70
     1
102
RTVSPropertyOp45
 70
     1
102
RTVSPropertyOp46
 70
     1
102
RTVSPropertyOp47
 70
     1
102
RTVSPropertyOp48
 70
     1
102
RTVSPropertyOp49
 70
     1
102
RTVSPropertyOp50
 70
     1
102
RTVSPropertyOp51
 70
     0
102
RTVSPropertyOp52
 70
     0
102
RTVSPropertyOp53
 70
     1
102
RTVSPropertyOp54
 70
     1
102
RTVSPropertyOp55
 70
     1
102
RTVSPropertyOp56
 70
     1
102
RTVSPropertyOp57
 70
     1
102
RTVSPost2010Prop28
280
     0
102
RTVSPost2010PropOp28
 70
     1
102
RTVSPost2010Prop29
280
     1
102
RTVSPost2010PropOp29
 70
     1
102
RTVSPost2010Prop30
280
     1
102
RTVSPost2010PropOp30
 70
     1
102
RTVSPost2010Prop31
280
     0
102
RTVSPost2010PropOp31
 70
     1
102
RTVSPost2010Prop32
280
     0
102
RTVSPost2010PropOp32
 70
     1
102
RTVSPost2010Prop33
280
     0
102
RTVSPost2010PropOp33
 70
     1
102
RTVSPost2010Prop34
280
     0
102
RTVSPost2010PropOp34
 70
     1
102
RTVSPost2010Prop35
280
     0
102
RTVSPost2010PropOp35
 70
     1
102
RTVSPost2010Prop36
280
     0
102
RTVSPost2010PropOp36
 70
     1
102
RTVSPost2010Prop37
 90
       50
102
RTVSPost2010PropOp37
 70
     1
102
RTVSPost2010Prop38
140
0.0
102
RTVSPost2010PropOp38
 70
     1
102
RTVSPost2010Prop39
140
1.0
102
RTVSPost2010PropOp39
 70
     1
102
RTVSPost2010Prop40
 90
        0
102
RTVSPost2010PropOp40
 70
     1
102
RTVSPost2010Prop41ColorIndex
 90
       18
102
RTVSPost2010Prop41ColorRGB
 90
        0
102
RTVSPost2010PropOp41
 70
     1
102
RTVSPost2010Prop42
 90
       50
102
RTVSPost2010PropOp42
 70
     1
102
RTVSPost2010Prop43
 90
        3
102
RTVSPost2010PropOp43
 70
     1
102
RTVSPost2010Prop44ColorIndex
 90
        5
102
RTVSPost2010Prop44ColorRGB
 90
      255
102
RTVSPost2010PropOp44
 70
     1
102
RTVSPost2010Prop45
280
     0
102
RTVSPost2010PropOp45
 70
     1
102
RTVSPost2010Prop46
 90
       50
102
RTVSPost2010PropOp46
 70
     1
102
RTVSPost2010Prop47
 90
       50
102
RTVSPost2010PropOp47
 70
     1
102
RTVSPost2010Prop48
 90
       50
102
RTVSPost2010PropOp48
 70
     1
102
RTVSPost2010Prop49
280
     0
102
RTVSPost2010PropOp49
 70
     1
102
RTVSPost2010Prop50
 90
       50
102
RTVSPost2010PropOp50
 70
     1
102
RTVSPost2010Prop51ColorIndex
 90
      256
102
RTVSPost2010Prop51ColorRGB
 90
-16777216
102
RTVSPost2010PropOp51
 70
     0
102
RTVSPost2010Prop52
140
1.0
102
RTVSPost2010PropOp52
 70
     0
102
RTVSPost2010Prop53
 90
        2
102
RTVSPost2010PropOp53
 70
     1
102
RTVSPost2010Prop54
  1
strokes_ogs.tif
102
RTVSPost2010PropOp54
 70
     1
102
RTVSPost2010Prop55
280
     0
102
RTVSPost2010PropOp55
 70
     1
102
RTVSPost2010Prop56
140
1.0
102
RTVSPost2010PropOp56
 70
     1
102
RTVSPost2010Prop57
140
1.0
102
RTVSPost2010PropOp57
 70
     1
  0
XRECORD
  5
41C
102
{ACAD_REACTORS
330
41B
102
}
330
41B
100
AcDbXrecord
280
     1
102
RTVSPropertyOp0
 70
     1
102
RTVSPropertyOp1
 70
     1
102
RTVSPropertyOp2
 70
     1
102
RTVSPropertyOp3
 70
     1
102
RTVSPropertyOp4
 70
     1
102
RTVSPropertyOp5
 70
     1
102
RTVSPropertyOp6
 70
     1
102
RTVSPropertyOp7
 70
     1
102
RTVSPropertyOp8
 70
     1
102
RTVSPropertyOp9
 70
     1
102
RTVSPropertyOp10
 70
     1
102
RTVSPropertyOp11
 70
     1
102
RTVSPropertyOp12
 70
     1
102
RTVSPropertyOp13
 70
     1
102
RTVSPropertyOp14
 70
     1
102
RTVSPropertyOp15
 70
     1
102
RTVSPropertyOp16
 70
     1
102
RTVSPropertyOp17
 70
     1
102
RTVSPropertyOp18
 70
     1
102
RTVSPropertyOp19
 70
     1
102
RTVSPropertyOp20
 70
     1
102
RTVSPropertyOp21
 70
     1
102
RTVSPropertyOp22
 70
     1
102
RTVSPropertyOp23
 70
     1
102
RTVSPropertyOp24
 70
     1
102
RTVSPropertyOp25
 70
     1
102
RTVSPropertyOp26
 70
     1
102
RTVSPropertyOp27
 70
     1
102
RTVSPropertyOp28
 70
     1
102
RTVSPropertyOp29
 70
     1
102
RTVSPropertyOp30
 70
     1
102
RTVSPropertyOp31
 70
     1
102
RTVSPropertyOp32
 70
     1
102
RTVSPropertyOp33
 70
     1
102
RTVSPropertyOp34
 70
     1
102
RTVSPropertyOp35
 70
     1
102
RTVSPropertyOp36
 70
     1
102
RTVSPropertyOp37
 70
     1
102
RTVSPropertyOp38
 70
     1
102
RTVSPropertyOp39
 70
     1
102
RTVSPropertyOp40
 70
     1
102
RTVSPropertyOp41
 70
     1
102
RTVSPropertyOp42
 70
     1
102
RTVSPropertyOp43
 70
     1
102
RTVSPropertyOp44
 70
     1
102
RTVSPropertyOp45
 70
     1
102
RTVSPropertyOp46
 70
     1
102
RTVSPropertyOp47
 70
     1
102
RTVSPropertyOp48
 70
     1
102
RTVSPropertyOp49
 70
     1
102
RTVSPropertyOp50
 70
     1
102
RTVSPropertyOp51
 70
     0
102
RTVSPropertyOp52
 70
     0
102
RTVSPropertyOp53
 70
     1
102
RTVSPropertyOp54
 70
     1
102
RTVSPropertyOp55
 70
     1
102
RTVSPropertyOp56
 70
     1
102
RTVSPropertyOp57
 70
     1
102
RTVSPost2010Prop28
280
     0
102
RTVSPost2010PropOp28
 70
     1
102
RTVSPost2010Prop29
280
     1
102
RTVSPost2010PropOp29
 70
     1
102
RTVSPost2010Prop30
280
     1
102
RTVSPost2010PropOp30
 70
     1
102
RTVSPost2010Prop31
280
     0
102
RTVSPost2010PropOp31
 70
     1
102
RTVSPost2010Prop32
280
     0
102
RTVSPost2010PropOp32
 70
     1
102
RTVSPost2010Prop33
280
     0
102
RTVSPost2010PropOp33
 70
     1
102
RTVSPost2010Prop34
280
     0
102
RTVSPost2010PropOp34
 70
     1
102
RTVSPost2010Prop35
280
     0
102
RTVSPost2010PropOp35
 70
     1
102
RTVSPost2010Prop36
280
     0
102
RTVSPost2010PropOp36
 70
     1
102
RTVSPost2010Prop37
 90
       50
102
RTVSPost2010PropOp37
 70
     1
102
RTVSPost2010Prop38
140
0.0
102
RTVSPost2010PropOp38
 70
     1
102
RTVSPost2010Prop39
140
1.0
102
RTVSPost2010PropOp39
 70
     1
102
RTVSPost2010Prop40
 90
        0
102
RTVSPost2010PropOp40
 70
     1
102
RTVSPost2010Prop41ColorIndex
 90
       18
102
RTVSPost2010Prop41ColorRGB
 90
        0
102
RTVSPost2010PropOp41
 70
     1
102
RTVSPost2010Prop42
 90
       50
102
RTVSPost2010PropOp42
 70
     1
102
RTVSPost2010Prop43
 90
        3
102
RTVSPost2010PropOp43
 70
     1
102
RTVSPost2010Prop44ColorIndex
 90
        5
102
RTVSPost2010Prop44ColorRGB
 90
      255
102
RTVSPost2010PropOp44
 70
     1
102
RTVSPost2010Prop45
280
     0
102
RTVSPost2010PropOp45
 70
     1
102
RTVSPost2010Prop46
 90
       50
102
RTVSPost2010PropOp46
 70
     1
102
RTVSPost2010Prop47
 90
       50
102
RTVSPost2010PropOp47
 70
     1
102
RTVSPost2010Prop48
 90
       50
102
RTVSPost2010PropOp48
 70
     1
102
RTVSPost2010Prop49
280
     0
102
RTVSPost2010PropOp49
 70
     1
102
RTVSPost2010Prop50
 90
       50
102
RTVSPost2010PropOp50
 70
     1
102
RTVSPost2010Prop51ColorIndex
 90
      256
102
RTVSPost2010Prop51ColorRGB
 90
-16777216
102
RTVSPost2010PropOp51
 70
     0
102
RTVSPost2010Prop52
140
1.0
102
RTVSPost2010PropOp52
 70
     0
102
RTVSPost2010Prop53
 90
        2
102
RTVSPost2010PropOp53
 70
     1
102
RTVSPost2010Prop54
  1
strokes_ogs.tif
102
RTVSPost2010PropOp54
 70
     1
102
RTVSPost2010Prop55
280
     0
102
RTVSPost2010PropOp55
 70
     1
102
RTVSPost2010Prop56
140
1.0
102
RTVSPost2010PropOp56
 70
     1
102
RTVSPost2010Prop57
140
1.0
102
RTVSPost2010PropOp57
 70
     1
  0
XRECORD
  5
424
102
{ACAD_REACTORS
330
423
102
}
330
423
100
AcDbXrecord
280
     1
102
RTVSPropertyOp0
 70
     1
102
RTVSPropertyOp1
 70
     1
102
RTVSPropertyOp2
 70
     1
102
RTVSPropertyOp3
 70
     1
102
RTVSPropertyOp4
 70
     1
102
RTVSPropertyOp5
 70
     1
102
RTVSPropertyOp6
 70
     1
102
RTVSPropertyOp7
 70
     1
102
RTVSPropertyOp8
 70
     1
102
RTVSPropertyOp9
 70
     1
102
RTVSPropertyOp10
 70
     1
102
RTVSPropertyOp11
 70
     1
102
RTVSPropertyOp12
 70
     1
102
RTVSPropertyOp13
 70
     1
102
RTVSPropertyOp14
 70
     1
102
RTVSPropertyOp15
 70
     1
102
RTVSPropertyOp16
 70
     1
102
RTVSPropertyOp17
 70
     1
102
RTVSPropertyOp18
 70
     1
102
RTVSPropertyOp19
 70
     1
102
RTVSPropertyOp20
 70
     1
102
RTVSPropertyOp21
 70
     1
102
RTVSPropertyOp22
 70
     1
102
RTVSPropertyOp23
 70
     1
102
RTVSPropertyOp24
 70
     1
102
RTVSPropertyOp25
 70
     1
102
RTVSPropertyOp26
 70
     1
102
RTVSPropertyOp27
 70
     1
102
RTVSPropertyOp28
 70
     1
102
RTVSPropertyOp29
 70
     1
102
RTVSPropertyOp30
 70
     1
102
RTVSPropertyOp31
 70
     1
102
RTVSPropertyOp32
 70
     1
102
RTVSPropertyOp33
 70
     1
102
RTVSPropertyOp34
 70
     1
102
RTVSPropertyOp35
 70
     1
102
RTVSPropertyOp36
 70
     1
102
RTVSPropertyOp37
 70
     1
102
RTVSPropertyOp38
 70
     1
102
RTVSPropertyOp39
 70
     1
102
RTVSPropertyOp40
 70
     1
102
RTVSPropertyOp41
 70
     1
102
RTVSPropertyOp42
 70
     1
102
RTVSPropertyOp43
 70
     1
102
RTVSPropertyOp44
 70
     1
102
RTVSPropertyOp45
 70
     1
102
RTVSPropertyOp46
 70
     1
102
RTVSPropertyOp47
 70
     1
102
RTVSPropertyOp48
 70
     1
102
RTVSPropertyOp49
 70
     1
102
RTVSPropertyOp50
 70
     1
102
RTVSPropertyOp51
 70
     0
102
RTVSPropertyOp52
 70
     0
102
RTVSPropertyOp53
 70
     1
102
RTVSPropertyOp54
 70
     1
102
RTVSPropertyOp55
 70
     1
102
RTVSPropertyOp56
 70
     1
102
RTVSPropertyOp57
 70
     1
102
RTVSPost2010Prop28
280
     0
102
RTVSPost2010PropOp28
 70
     1
102
RTVSPost2010Prop29
280
     1
102
RTVSPost2010PropOp29
 70
     1
102
RTVSPost2010Prop30
280
     1
102
RTVSPost2010PropOp30
 70
     1
102
RTVSPost2010Prop31
280
     0
102
RTVSPost2010PropOp31
 70
     1
102
RTVSPost2010Prop32
280
     0
102
RTVSPost2010PropOp32
 70
     1
102
RTVSPost2010Prop33
280
     0
102
RTVSPost2010PropOp33
 70
     1
102
RTVSPost2010Prop34
280
     0
102
RTVSPost2010PropOp34
 70
     1
102
RTVSPost2010Prop35
280
     0
102
RTVSPost2010PropOp35
 70
     1
102
RTVSPost2010Prop36
280
     0
102
RTVSPost2010PropOp36
 70
     1
102
RTVSPost2010Prop37
 90
       50
102
RTVSPost2010PropOp37
 70
     1
102
RTVSPost2010Prop38
140
0.0
102
RTVSPost2010PropOp38
 70
     1
102
RTVSPost2010Prop39
140
1.0
102
RTVSPost2010PropOp39
 70
     1
102
RTVSPost2010Prop40
 90
        0
102
RTVSPost2010PropOp40
 70
     1
102
RTVSPost2010Prop41ColorIndex
 90
       18
102
RTVSPost2010Prop41ColorRGB
 90
        0
102
RTVSPost2010PropOp41
 70
     1
102
RTVSPost2010Prop42
 90
       50
102
RTVSPost2010PropOp42
 70
     1
102
RTVSPost2010Prop43
 90
        3
102
RTVSPost2010PropOp43
 70
     1
102
RTVSPost2010Prop44ColorIndex
 90
        5
102
RTVSPost2010Prop44ColorRGB
 90
      255
102
RTVSPost2010PropOp44
 70
     1
102
RTVSPost2010Prop45
280
     0
102
RTVSPost2010PropOp45
 70
     1
102
RTVSPost2010Prop46
 90
       50
102
RTVSPost2010PropOp46
 70
     1
102
RTVSPost2010Prop47
 90
       50
102
RTVSPost2010PropOp47
 70
     1
102
RTVSPost2010Prop48
 90
       50
102
RTVSPost2010PropOp48
 70
     1
102
RTVSPost2010Prop49
280
     0
102
RTVSPost2010PropOp49
 70
     1
102
RTVSPost2010Prop50
 90
       50
102
RTVSPost2010PropOp50
 70
     1
102
RTVSPost2010Prop51ColorIndex
 90
      256
102
RTVSPost2010Prop51ColorRGB
 90
-16777216
102
RTVSPost2010PropOp51
 70
     0
102
RTVSPost2010Prop52
140
1.0
102
RTVSPost2010PropOp52
 70
     0
102
RTVSPost2010Prop53
 90
        2
102
RTVSPost2010PropOp53
 70
     1
102
RTVSPost2010Prop54
  1
strokes_ogs.tif
102
RTVSPost2010PropOp54
 70
     1
102
RTVSPost2010Prop55
280
     0
102
RTVSPost2010PropOp55
 70
     1
102
RTVSPost2010Prop56
140
1.0
102
RTVSPost2010PropOp56
 70
     1
102
RTVSPost2010Prop57
140
1.0
102
RTVSPost2010PropOp57
 70
     1
  0
XRECORD
  5
418
102
{ACAD_REACTORS
330
417
102
}
330
417
100
AcDbXrecord
280
     1
102
RTVSPropertyOp0
 70
     1
102
RTVSPropertyOp1
 70
     1
102
RTVSPropertyOp2
 70
     1
102
RTVSPropertyOp3
 70
     1
102
RTVSPropertyOp4
 70
     1
102
RTVSPropertyOp5
 70
     1
102
RTVSPropertyOp6
 70
     1
102
RTVSPropertyOp7
 70
     1
102
RTVSPropertyOp8
 70
     1
102
RTVSPropertyOp9
 70
     1
102
RTVSPropertyOp10
 70
     1
102
RTVSPropertyOp11
 70
     1
102
RTVSPropertyOp12
 70
     1
102
RTVSPropertyOp13
 70
     1
102
RTVSPropertyOp14
 70
     1
102
RTVSPropertyOp15
 70
     1
102
RTVSPropertyOp16
 70
     1
102
RTVSPropertyOp17
 70
     1
102
RTVSPropertyOp18
 70
     1
102
RTVSPropertyOp19
 70
     1
102
RTVSPropertyOp20
 70
     1
102
RTVSPropertyOp21
 70
     1
102
RTVSPropertyOp22
 70
     1
102
RTVSPropertyOp23
 70
     1
102
RTVSPropertyOp24
 70
     1
102
RTVSPropertyOp25
 70
     1
102
RTVSPropertyOp26
 70
     1
102
RTVSPropertyOp27
 70
     1
102
RTVSPropertyOp28
 70
     1
102
RTVSPropertyOp29
 70
     1
102
RTVSPropertyOp30
 70
     1
102
RTVSPropertyOp31
 70
     1
102
RTVSPropertyOp32
 70
     1
102
RTVSPropertyOp33
 70
     1
102
RTVSPropertyOp34
 70
     1
102
RTVSPropertyOp35
 70
     1
102
RTVSPropertyOp36
 70
     1
102
RTVSPropertyOp37
 70
     1
102
RTVSPropertyOp38
 70
     1
102
RTVSPropertyOp39
 70
     1
102
RTVSPropertyOp40
 70
     1
102
RTVSPropertyOp41
 70
     1
102
RTVSPropertyOp42
 70
     1
102
RTVSPropertyOp43
 70
     1
102
RTVSPropertyOp44
 70
     1
102
RTVSPropertyOp45
 70
     1
102
RTVSPropertyOp46
 70
     1
102
RTVSPropertyOp47
 70
     1
102
RTVSPropertyOp48
 70
     1
102
RTVSPropertyOp49
 70
     1
102
RTVSPropertyOp50
 70
     1
102
RTVSPropertyOp51
 70
     0
102
RTVSPropertyOp52
 70
     0
102
RTVSPropertyOp53
 70
     1
102
RTVSPropertyOp54
 70
     1
102
RTVSPropertyOp55
 70
     1
102
RTVSPropertyOp56
 70
     1
102
RTVSPropertyOp57
 70
     1
102
RTVSPost2010Prop28
280
     0
102
RTVSPost2010PropOp28
 70
     1
102
RTVSPost2010Prop29
280
     1
102
RTVSPost2010PropOp29
 70
     1
102
RTVSPost2010Prop30
280
     1
102
RTVSPost2010PropOp30
 70
     1
102
RTVSPost2010Prop31
280
     0
102
RTVSPost2010PropOp31
 70
     1
102
RTVSPost2010Prop32
280
     0
102
RTVSPost2010PropOp32
 70
     1
102
RTVSPost2010Prop33
280
     0
102
RTVSPost2010PropOp33
 70
     1
102
RTVSPost2010Prop34
280
     0
102
RTVSPost2010PropOp34
 70
     1
102
RTVSPost2010Prop35
280
     0
102
RTVSPost2010PropOp35
 70
     1
102
RTVSPost2010Prop36
280
     0
102
RTVSPost2010PropOp36
 70
     1
102
RTVSPost2010Prop37
 90
       50
102
RTVSPost2010PropOp37
 70
     1
102
RTVSPost2010Prop38
140
0.0
102
RTVSPost2010PropOp38
 70
     1
102
RTVSPost2010Prop39
140
1.0
102
RTVSPost2010PropOp39
 70
     1
102
RTVSPost2010Prop40
 90
        0
102
RTVSPost2010PropOp40
 70
     1
102
RTVSPost2010Prop41ColorIndex
 90
       18
102
RTVSPost2010Prop41ColorRGB
 90
        0
102
RTVSPost2010PropOp41
 70
     1
102
RTVSPost2010Prop42
 90
       50
102
RTVSPost2010PropOp42
 70
     1
102
RTVSPost2010Prop43
 90
        3
102
RTVSPost2010PropOp43
 70
     1
102
RTVSPost2010Prop44ColorIndex
 90
        5
102
RTVSPost2010Prop44ColorRGB
 90
      255
102
RTVSPost2010PropOp44
 70
     1
102
RTVSPost2010Prop45
280
     0
102
RTVSPost2010PropOp45
 70
     1
102
RTVSPost2010Prop46
 90
       50
102
RTVSPost2010PropOp46
 70
     1
102
RTVSPost2010Prop47
 90
       50
102
RTVSPost2010PropOp47
 70
     1
102
RTVSPost2010Prop48
 90
       50
102
RTVSPost2010PropOp48
 70
     1
102
RTVSPost2010Prop49
280
     0
102
RTVSPost2010PropOp49
 70
     1
102
RTVSPost2010Prop50
 90
       50
102
RTVSPost2010PropOp50
 70
     1
102
RTVSPost2010Prop51ColorIndex
 90
      256
102
RTVSPost2010Prop51ColorRGB
 90
-16777216
102
RTVSPost2010PropOp51
 70
     0
102
RTVSPost2010Prop52
140
1.0
102
RTVSPost2010PropOp52
 70
     0
102
RTVSPost2010Prop53
 90
        2
102
RTVSPost2010PropOp53
 70
     1
102
RTVSPost2010Prop54
  1
strokes_ogs.tif
102
RTVSPost2010PropOp54
 70
     1
102
RTVSPost2010Prop55
280
     0
102
RTVSPost2010PropOp55
 70
     1
102
RTVSPost2010Prop56
140
1.0
102
RTVSPost2010PropOp56
 70
     1
102
RTVSPost2010Prop57
140
1.0
102
RTVSPost2010PropOp57
 70
     1
  0
XRECORD
  5
41A
102
{ACAD_REACTORS
330
419
102
}
330
419
100
AcDbXrecord
280
     1
102
RTVSPropertyOp0
 70
     1
102
RTVSPropertyOp1
 70
     1
102
RTVSPropertyOp2
 70
     1
102
RTVSPropertyOp3
 70
     1
102
RTVSPropertyOp4
 70
     1
102
RTVSPropertyOp5
 70
     1
102
RTVSPropertyOp6
 70
     1
102
RTVSPropertyOp7
 70
     1
102
RTVSPropertyOp8
 70
     1
102
RTVSPropertyOp9
 70
     1
102
RTVSPropertyOp10
 70
     1
102
RTVSPropertyOp11
 70
     1
102
RTVSPropertyOp12
 70
     1
102
RTVSPropertyOp13
 70
     1
102
RTVSPropertyOp14
 70
     1
102
RTVSPropertyOp15
 70
     1
102
RTVSPropertyOp16
 70
     1
102
RTVSPropertyOp17
 70
     1
102
RTVSPropertyOp18
 70
     1
102
RTVSPropertyOp19
 70
     1
102
RTVSPropertyOp20
 70
     1
102
RTVSPropertyOp21
 70
     1
102
RTVSPropertyOp22
 70
     1
102
RTVSPropertyOp23
 70
     1
102
RTVSPropertyOp24
 70
     1
102
RTVSPropertyOp25
 70
     1
102
RTVSPropertyOp26
 70
     1
102
RTVSPropertyOp27
 70
     1
102
RTVSPropertyOp28
 70
     1
102
RTVSPropertyOp29
 70
     1
102
RTVSPropertyOp30
 70
     1
102
RTVSPropertyOp31
 70
     1
102
RTVSPropertyOp32
 70
     1
102
RTVSPropertyOp33
 70
     1
102
RTVSPropertyOp34
 70
     1
102
RTVSPropertyOp35
 70
     1
102
RTVSPropertyOp36
 70
     1
102
RTVSPropertyOp37
 70
     1
102
RTVSPropertyOp38
 70
     1
102
RTVSPropertyOp39
 70
     1
102
RTVSPropertyOp40
 70
     1
102
RTVSPropertyOp41
 70
     1
102
RTVSPropertyOp42
 70
     1
102
RTVSPropertyOp43
 70
     1
102
RTVSPropertyOp44
 70
     1
102
RTVSPropertyOp45
 70
     1
102
RTVSPropertyOp46
 70
     1
102
RTVSPropertyOp47
 70
     1
102
RTVSPropertyOp48
 70
     1
102
RTVSPropertyOp49
 70
     1
102
RTVSPropertyOp50
 70
     1
102
RTVSPropertyOp51
 70
     0
102
RTVSPropertyOp52
 70
     0
102
RTVSPropertyOp53
 70
     1
102
RTVSPropertyOp54
 70
     1
102
RTVSPropertyOp55
 70
     1
102
RTVSPropertyOp56
 70
     1
102
RTVSPropertyOp57
 70
     1
102
RTVSPost2010Prop28
280
     0
102
RTVSPost2010PropOp28
 70
     1
102
RTVSPost2010Prop29
280
     1
102
RTVSPost2010PropOp29
 70
     1
102
RTVSPost2010Prop30
280
     1
102
RTVSPost2010PropOp30
 70
     1
102
RTVSPost2010Prop31
280
     0
102
RTVSPost2010PropOp31
 70
     1
102
RTVSPost2010Prop32
280
     0
102
RTVSPost2010PropOp32
 70
     1
102
RTVSPost2010Prop33
280
     0
102
RTVSPost2010PropOp33
 70
     1
102
RTVSPost2010Prop34
280
     0
102
RTVSPost2010PropOp34
 70
     1
102
RTVSPost2010Prop35
280
     0
102
RTVSPost2010PropOp35
 70
     1
102
RTVSPost2010Prop36
280
     0
102
RTVSPost2010PropOp36
 70
     1
102
RTVSPost2010Prop37
 90
       50
102
RTVSPost2010PropOp37
 70
     1
102
RTVSPost2010Prop38
140
0.0
102
RTVSPost2010PropOp38
 70
     1
102
RTVSPost2010Prop39
140
1.0
102
RTVSPost2010PropOp39
 70
     1
102
RTVSPost2010Prop40
 90
        0
102
RTVSPost2010PropOp40
 70
     1
102
RTVSPost2010Prop41ColorIndex
 90
       18
102
RTVSPost2010Prop41ColorRGB
 90
        0
102
RTVSPost2010PropOp41
 70
     1
102
RTVSPost2010Prop42
 90
       50
102
RTVSPost2010PropOp42
 70
     1
102
RTVSPost2010Prop43
 90
        3
102
RTVSPost2010PropOp43
 70
     1
102
RTVSPost2010Prop44ColorIndex
 90
        5
102
RTVSPost2010Prop44ColorRGB
 90
      255
102
RTVSPost2010PropOp44
 70
     1
102
RTVSPost2010Prop45
280
     0
102
RTVSPost2010PropOp45
 70
     1
102
RTVSPost2010Prop46
 90
       50
102
RTVSPost2010PropOp46
 70
     1
102
RTVSPost2010Prop47
 90
       50
102
RTVSPost2010PropOp47
 70
     1
102
RTVSPost2010Prop48
 90
       50
102
RTVSPost2010PropOp48
 70
     1
102
RTVSPost2010Prop49
280
     0
102
RTVSPost2010PropOp49
 70
     1
102
RTVSPost2010Prop50
 90
       50
102
RTVSPost2010PropOp50
 70
     1
102
RTVSPost2010Prop51ColorIndex
 90
      256
102
RTVSPost2010Prop51ColorRGB
 90
-16777216
102
RTVSPost2010PropOp51
 70
     0
102
RTVSPost2010Prop52
140
1.0
102
RTVSPost2010PropOp52
 70
     0
102
RTVSPost2010Prop53
 90
        2
102
RTVSPost2010PropOp53
 70
     1
102
RTVSPost2010Prop54
  1
strokes_ogs.tif
102
RTVSPost2010PropOp54
 70
     1
102
RTVSPost2010Prop55
280
     0
102
RTVSPost2010PropOp55
 70
     1
102
RTVSPost2010Prop56
140
1.0
102
RTVSPost2010PropOp56
 70
     1
102
RTVSPost2010Prop57
140
1.0
102
RTVSPost2010PropOp57
 70
     1
  0
XRECORD
  5
42A
102
{ACAD_REACTORS
330
429
102
}
330
429
100
AcDbXrecord
280
     1
102
RTVSPropertyOp0
 70
     0
102
RTVSPropertyOp1
 70
     0
102
RTVSPropertyOp2
 70
     0
102
RTVSPropertyOp3
 70
     0
102
RTVSPropertyOp4
 70
     0
102
RTVSPropertyOp5
 70
     0
102
RTVSPropertyOp6
 70
     0
102
RTVSPropertyOp7
 70
     0
102
RTVSPropertyOp8
 70
     0
102
RTVSPropertyOp9
 70
     0
102
RTVSPropertyOp10
 70
     0
102
RTVSPropertyOp11
 70
     0
102
RTVSPropertyOp12
 70
     0
102
RTVSPropertyOp13
 70
     0
102
RTVSPropertyOp14
 70
     2
102
RTVSPropertyOp15
 70
     0
102
RTVSPropertyOp16
 70
     0
102
RTVSPropertyOp17
 70
     0
102
RTVSPropertyOp18
 70
     0
102
RTVSPropertyOp19
 70
     0
102
RTVSPropertyOp20
 70
     0
102
RTVSPropertyOp21
 70
     0
102
RTVSPropertyOp22
 70
     0
102
RTVSPropertyOp23
 70
     0
102
RTVSPropertyOp24
 70
     0
102
RTVSPropertyOp25
 70
     0
102
RTVSPropertyOp26
 70
     0
102
RTVSPropertyOp27
 70
     0
102
RTVSPropertyOp28
 70
     0
102
RTVSPropertyOp29
 70
     0
102
RTVSPropertyOp30
 70
     0
102
RTVSPropertyOp31
 70
     0
102
RTVSPropertyOp32
 70
     0
102
RTVSPropertyOp33
 70
     0
102
RTVSPropertyOp34
 70
     0
102
RTVSPropertyOp35
 70
     0
102
RTVSPropertyOp36
 70
     0
102
RTVSPropertyOp37
 70
     0
102
RTVSPropertyOp38
 70
     0
102
RTVSPropertyOp39
 70
     0
102
RTVSPropertyOp40
 70
     0
102
RTVSPropertyOp41
 70
     0
102
RTVSPropertyOp42
 70
     0
102
RTVSPropertyOp43
 70
     0
102
RTVSPropertyOp44
 70
     0
102
RTVSPropertyOp45
 70
     0
102
RTVSPropertyOp46
 70
     0
102
RTVSPropertyOp47
 70
     0
102
RTVSPropertyOp48
 70
     0
102
RTVSPropertyOp49
 70
     0
102
RTVSPropertyOp50
 70
     0
102
RTVSPropertyOp51
 70
     0
102
RTVSPropertyOp52
 70
     0
102
RTVSPropertyOp53
 70
     0
102
RTVSPropertyOp54
 70
     0
102
RTVSPropertyOp55
 70
     0
102
RTVSPropertyOp56
 70
     0
102
RTVSPropertyOp57
 70
     0
102
RTVSPost2010Prop28
280
     0
102
RTVSPost2010PropOp28
 70
     0
102
RTVSPost2010Prop29
280
     1
102
RTVSPost2010PropOp29
 70
     0
102
RTVSPost2010Prop30
280
     1
102
RTVSPost2010PropOp30
 70
     0
102
RTVSPost2010Prop31
280
     0
102
RTVSPost2010PropOp31
 70
     0
102
RTVSPost2010Prop32
280
     0
102
RTVSPost2010PropOp32
 70
     0
102
RTVSPost2010Prop33
280
     0
102
RTVSPost2010PropOp33
 70
     0
102
RTVSPost2010Prop34
280
     0
102
RTVSPost2010PropOp34
 70
     0
102
RTVSPost2010Prop35
280
     0
102
RTVSPost2010PropOp35
 70
     0
102
RTVSPost2010Prop36
280
     0
102
RTVSPost2010PropOp36
 70
     0
102
RTVSPost2010Prop37
 90
       50
102
RTVSPost2010PropOp37
 70
     0
102
RTVSPost2010Prop38
140
0.0
102
RTVSPost2010PropOp38
 70
     0
102
RTVSPost2010Prop39
140
1.0
102
RTVSPost2010PropOp39
 70
     0
102
RTVSPost2010Prop40
 90
        0
102
RTVSPost2010PropOp40
 70
     0
102
RTVSPost2010Prop41ColorIndex
 90
       18
102
RTVSPost2010Prop41ColorRGB
 90
        0
102
RTVSPost2010PropOp41
 70
     0
102
RTVSPost2010Prop42
 90
       50
102
RTVSPost2010PropOp42
 70
     0
102
RTVSPost2010Prop43
 90
        3
102
RTVSPost2010PropOp43
 70
     0
102
RTVSPost2010Prop44ColorIndex
 90
        5
102
RTVSPost2010Prop44ColorRGB
 90
      255
102
RTVSPost2010PropOp44
 70
     0
102
RTVSPost2010Prop45
280
     0
102
RTVSPost2010PropOp45
 70
     0
102
RTVSPost2010Prop46
 90
       50
102
RTVSPost2010PropOp46
 70
     0
102
RTVSPost2010Prop47
 90
       50
102
RTVSPost2010PropOp47
 70
     0
102
RTVSPost2010Prop48
 90
       50
102
RTVSPost2010PropOp48
 70
     0
102
RTVSPost2010Prop49
280
     0
102
RTVSPost2010PropOp49
 70
     0
102
RTVSPost2010Prop50
 90
       50
102
RTVSPost2010PropOp50
 70
     0
102
RTVSPost2010Prop51ColorIndex
 90
      256
102
RTVSPost2010Prop51ColorRGB
 90
-16777216
102
RTVSPost2010PropOp51
 70
     0
102
RTVSPost2010Prop52
140
1.0
102
RTVSPost2010PropOp52
 70
     0
102
RTVSPost2010Prop53
 90
        2
102
RTVSPost2010PropOp53
 70
     0
102
RTVSPost2010Prop54
  1
strokes_ogs.tif
102
RTVSPost2010PropOp54
 70
     0
102
RTVSPost2010Prop55
280
     0
102
RTVSPost2010PropOp55
 70
     0
102
RTVSPost2010Prop56
140
1.0
102
RTVSPost2010PropOp56
 70
     0
102
RTVSPost2010Prop57
140
1.0
102
RTVSPost2010PropOp57
 70
     0
  0
XRECORD
  5
422
102
{ACAD_REACTORS
330
421
102
}
330
421
100
AcDbXrecord
280
     1
102
RTVSPropertyOp0
 70
     1
102
RTVSPropertyOp1
 70
     1
102
RTVSPropertyOp2
 70
     1
102
RTVSPropertyOp3
 70
     1
102
RTVSPropertyOp4
 70
     1
102
RTVSPropertyOp5
 70
     1
102
RTVSPropertyOp6
 70
     1
102
RTVSPropertyOp7
 70
     1
102
RTVSPropertyOp8
 70
     1
102
RTVSPropertyOp9
 70
     1
102
RTVSPropertyOp10
 70
     1
102
RTVSPropertyOp11
 70
     1
102
RTVSPropertyOp12
 70
     1
102
RTVSPropertyOp13
 70
     1
102
RTVSPropertyOp14
 70
     1
102
RTVSPropertyOp15
 70
     1
102
RTVSPropertyOp16
 70
     1
102
RTVSPropertyOp17
 70
     1
102
RTVSPropertyOp18
 70
     1
102
RTVSPropertyOp19
 70
     1
102
RTVSPropertyOp20
 70
     1
102
RTVSPropertyOp21
 70
     1
102
RTVSPropertyOp22
 70
     1
102
RTVSPropertyOp23
 70
     1
102
RTVSPropertyOp24
 70
     1
102
RTVSPropertyOp25
 70
     1
102
RTVSPropertyOp26
 70
     1
102
RTVSPropertyOp27
 70
     1
102
RTVSPropertyOp28
 70
     1
102
RTVSPropertyOp29
 70
     1
102
RTVSPropertyOp30
 70
     1
102
RTVSPropertyOp31
 70
     1
102
RTVSPropertyOp32
 70
     1
102
RTVSPropertyOp33
 70
     1
102
RTVSPropertyOp34
 70
     1
102
RTVSPropertyOp35
 70
     1
102
RTVSPropertyOp36
 70
     1
102
RTVSPropertyOp37
 70
     1
102
RTVSPropertyOp38
 70
     1
102
RTVSPropertyOp39
 70
     1
102
RTVSPropertyOp40
 70
     1
102
RTVSPropertyOp41
 70
     1
102
RTVSPropertyOp42
 70
     1
102
RTVSPropertyOp43
 70
     1
102
RTVSPropertyOp44
 70
     1
102
RTVSPropertyOp45
 70
     1
102
RTVSPropertyOp46
 70
     1
102
RTVSPropertyOp47
 70
     1
102
RTVSPropertyOp48
 70
     1
102
RTVSPropertyOp49
 70
     1
102
RTVSPropertyOp50
 70
     1
102
RTVSPropertyOp51
 70
     0
102
RTVSPropertyOp52
 70
     0
102
RTVSPropertyOp53
 70
     1
102
RTVSPropertyOp54
 70
     1
102
RTVSPropertyOp55
 70
     1
102
RTVSPropertyOp56
 70
     1
102
RTVSPropertyOp57
 70
     1
102
RTVSPost2010Prop28
280
     0
102
RTVSPost2010PropOp28
 70
     1
102
RTVSPost2010Prop29
280
     1
102
RTVSPost2010PropOp29
 70
     1
102
RTVSPost2010Prop30
280
     1
102
RTVSPost2010PropOp30
 70
     1
102
RTVSPost2010Prop31
280
     0
102
RTVSPost2010PropOp31
 70
     1
102
RTVSPost2010Prop32
280
     0
102
RTVSPost2010PropOp32
 70
     1
102
RTVSPost2010Prop33
280
     0
102
RTVSPost2010PropOp33
 70
     1
102
RTVSPost2010Prop34
280
     0
102
RTVSPost2010PropOp34
 70
     1
102
RTVSPost2010Prop35
280
     0
102
RTVSPost2010PropOp35
 70
     1
102
RTVSPost2010Prop36
280
     0
102
RTVSPost2010PropOp36
 70
     1
102
RTVSPost2010Prop37
 90
       50
102
RTVSPost2010PropOp37
 70
     1
102
RTVSPost2010Prop38
140
0.0
102
RTVSPost2010PropOp38
 70
     1
102
RTVSPost2010Prop39
140
1.0
102
RTVSPost2010PropOp39
 70
     1
102
RTVSPost2010Prop40
 90
        0
102
RTVSPost2010PropOp40
 70
     1
102
RTVSPost2010Prop41ColorIndex
 90
       18
102
RTVSPost2010Prop41ColorRGB
 90
        0
102
RTVSPost2010PropOp41
 70
     1
102
RTVSPost2010Prop42
 90
       50
102
RTVSPost2010PropOp42
 70
     1
102
RTVSPost2010Prop43
 90
        3
102
RTVSPost2010PropOp43
 70
     1
102
RTVSPost2010Prop44ColorIndex
 90
        5
102
RTVSPost2010Prop44ColorRGB
 90
      255
102
RTVSPost2010PropOp44
 70
     1
102
RTVSPost2010Prop45
280
     0
102
RTVSPost2010PropOp45
 70
     1
102
RTVSPost2010Prop46
 90
       50
102
RTVSPost2010PropOp46
 70
     1
102
RTVSPost2010Prop47
 90
       50
102
RTVSPost2010PropOp47
 70
     1
102
RTVSPost2010Prop48
 90
       50
102
RTVSPost2010PropOp48
 70
     1
102
RTVSPost2010Prop49
280
     0
102
RTVSPost2010PropOp49
 70
     1
102
RTVSPost2010Prop50
 90
       50
102
RTVSPost2010PropOp50
 70
     1
102
RTVSPost2010Prop51ColorIndex
 90
      256
102
RTVSPost2010Prop51ColorRGB
 90
-16777216
102
RTVSPost2010PropOp51
 70
     0
102
RTVSPost2010Prop52
140
1.0
102
RTVSPost2010PropOp52
 70
     0
102
RTVSPost2010Prop53
 90
        2
102
RTVSPost2010PropOp53
 70
     1
102
RTVSPost2010Prop54
  1
strokes_ogs.tif
102
RTVSPost2010PropOp54
 70
     1
102
RTVSPost2010Prop55
280
     0
102
RTVSPost2010PropOp55
 70
     1
102
RTVSPost2010Prop56
140
1.0
102
RTVSPost2010PropOp56
 70
     1
102
RTVSPost2010Prop57
140
1.0
102
RTVSPost2010PropOp57
 70
     1
  0
XRECORD
  5
406
102
{ACAD_REACTORS
330
405
102
}
330
405
100
AcDbXrecord
280
     1
102
RTVSPropertyOp0
 70
     1
102
RTVSPropertyOp1
 70
     1
102
RTVSPropertyOp2
 70
     1
102
RTVSPropertyOp3
 70
     1
102
RTVSPropertyOp4
 70
     1
102
RTVSPropertyOp5
 70
     1
102
RTVSPropertyOp6
 70
     1
102
RTVSPropertyOp7
 70
     1
102
RTVSPropertyOp8
 70
     1
102
RTVSPropertyOp9
 70
     1
102
RTVSPropertyOp10
 70
     1
102
RTVSPropertyOp11
 70
     1
102
RTVSPropertyOp12
 70
     1
102
RTVSPropertyOp13
 70
     1
102
RTVSPropertyOp14
 70
     1
102
RTVSPropertyOp15
 70
     1
102
RTVSPropertyOp16
 70
     1
102
RTVSPropertyOp17
 70
     1
102
RTVSPropertyOp18
 70
     1
102
RTVSPropertyOp19
 70
     1
102
RTVSPropertyOp20
 70
     1
102
RTVSPropertyOp21
 70
     1
102
RTVSPropertyOp22
 70
     1
102
RTVSPropertyOp23
 70
     1
102
RTVSPropertyOp24
 70
     1
102
RTVSPropertyOp25
 70
     1
102
RTVSPropertyOp26
 70
     1
102
RTVSPropertyOp27
 70
     1
102
RTVSPropertyOp28
 70
     1
102
RTVSPropertyOp29
 70
     1
102
RTVSPropertyOp30
 70
     1
102
RTVSPropertyOp31
 70
     1
102
RTVSPropertyOp32
 70
     1
102
RTVSPropertyOp33
 70
     1
102
RTVSPropertyOp34
 70
     1
102
RTVSPropertyOp35
 70
     1
102
RTVSPropertyOp36
 70
     1
102
RTVSPropertyOp37
 70
     1
102
RTVSPropertyOp38
 70
     1
102
RTVSPropertyOp39
 70
     1
102
RTVSPropertyOp40
 70
     1
102
RTVSPropertyOp41
 70
     1
102
RTVSPropertyOp42
 70
     1
102
RTVSPropertyOp43
 70
     1
102
RTVSPropertyOp44
 70
     1
102
RTVSPropertyOp45
 70
     1
102
RTVSPropertyOp46
 70
     1
102
RTVSPropertyOp47
 70
     1
102
RTVSPropertyOp48
 70
     1
102
RTVSPropertyOp49
 70
     1
102
RTVSPropertyOp50
 70
     1
102
RTVSPropertyOp51
 70
     0
102
RTVSPropertyOp52
 70
     0
102
RTVSPropertyOp53
 70
     1
102
RTVSPropertyOp54
 70
     1
102
RTVSPropertyOp55
 70
     1
102
RTVSPropertyOp56
 70
     1
102
RTVSPropertyOp57
 70
     1
102
RTVSPost2010Prop28
280
     0
102
RTVSPost2010PropOp28
 70
     1
102
RTVSPost2010Prop29
280
     1
102
RTVSPost2010PropOp29
 70
     1
102
RTVSPost2010Prop30
280
     1
102
RTVSPost2010PropOp30
 70
     1
102
RTVSPost2010Prop31
280
     0
102
RTVSPost2010PropOp31
 70
     1
102
RTVSPost2010Prop32
280
     0
102
RTVSPost2010PropOp32
 70
     1
102
RTVSPost2010Prop33
280
     0
102
RTVSPost2010PropOp33
 70
     1
102
RTVSPost2010Prop34
280
     0
102
RTVSPost2010PropOp34
 70
     1
102
RTVSPost2010Prop35
280
     0
102
RTVSPost2010PropOp35
 70
     1
102
RTVSPost2010Prop36
280
     0
102
RTVSPost2010PropOp36
 70
     1
102
RTVSPost2010Prop37
 90
       50
102
RTVSPost2010PropOp37
 70
     1
102
RTVSPost2010Prop38
140
0.0
102
RTVSPost2010PropOp38
 70
     1
102
RTVSPost2010Prop39
140
1.0
102
RTVSPost2010PropOp39
 70
     1
102
RTVSPost2010Prop40
 90
        0
102
RTVSPost2010PropOp40
 70
     1
102
RTVSPost2010Prop41ColorIndex
 90
       18
102
RTVSPost2010Prop41ColorRGB
 90
        0
102
RTVSPost2010PropOp41
 70
     1
102
RTVSPost2010Prop42
 90
       50
102
RTVSPost2010PropOp42
 70
     1
102
RTVSPost2010Prop43
 90
        3
102
RTVSPost2010PropOp43
 70
     1
102
RTVSPost2010Prop44ColorIndex
 90
        5
102
RTVSPost2010Prop44ColorRGB
 90
      255
102
RTVSPost2010PropOp44
 70
     1
102
RTVSPost2010Prop45
280
     0
102
RTVSPost2010PropOp45
 70
     1
102
RTVSPost2010Prop46
 90
       50
102
RTVSPost2010PropOp46
 70
     1
102
RTVSPost2010Prop47
 90
       50
102
RTVSPost2010PropOp47
 70
     1
102
RTVSPost2010Prop48
 90
       50
102
RTVSPost2010PropOp48
 70
     1
102
RTVSPost2010Prop49
280
     0
102
RTVSPost2010PropOp49
 70
     1
102
RTVSPost2010Prop50
 90
       50
102
RTVSPost2010PropOp50
 70
     1
102
RTVSPost2010Prop51ColorIndex
 90
      256
102
RTVSPost2010Prop51ColorRGB
 90
-16777216
102
RTVSPost2010PropOp51
 70
     0
102
RTVSPost2010Prop52
140
1.0
102
RTVSPost2010PropOp52
 70
     0
102
RTVSPost2010Prop53
 90
        2
102
RTVSPost2010PropOp53
 70
     1
102
RTVSPost2010Prop54
  1
strokes_ogs.tif
102
RTVSPost2010PropOp54
 70
     1
102
RTVSPost2010Prop55
280
     0
102
RTVSPost2010PropOp55
 70
     1
102
RTVSPost2010Prop56
140
1.0
102
RTVSPost2010PropOp56
 70
     1
102
RTVSPost2010Prop57
140
1.0
102
RTVSPost2010PropOp57
 70
     1
  0
XRECORD
  5
408
102
{ACAD_REACTORS
330
407
102
}
330
407
100
AcDbXrecord
280
     1
102
RTVSPropertyOp0
 70
     1
102
RTVSPropertyOp1
 70
     1
102
RTVSPropertyOp2
 70
     1
102
RTVSPropertyOp3
 70
     1
102
RTVSPropertyOp4
 70
     1
102
RTVSPropertyOp5
 70
     1
102
RTVSPropertyOp6
 70
     1
102
RTVSPropertyOp7
 70
     1
102
RTVSPropertyOp8
 70
     1
102
RTVSPropertyOp9
 70
     1
102
RTVSPropertyOp10
 70
     1
102
RTVSPropertyOp11
 70
     1
102
RTVSPropertyOp12
 70
     1
102
RTVSPropertyOp13
 70
     1
102
RTVSPropertyOp14
 70
     1
102
RTVSPropertyOp15
 70
     1
102
RTVSPropertyOp16
 70
     1
102
RTVSPropertyOp17
 70
     1
102
RTVSPropertyOp18
 70
     1
102
RTVSPropertyOp19
 70
     1
102
RTVSPropertyOp20
 70
     1
102
RTVSPropertyOp21
 70
     1
102
RTVSPropertyOp22
 70
     1
102
RTVSPropertyOp23
 70
     1
102
RTVSPropertyOp24
 70
     1
102
RTVSPropertyOp25
 70
     1
102
RTVSPropertyOp26
 70
     1
102
RTVSPropertyOp27
 70
     1
102
RTVSPropertyOp28
 70
     1
102
RTVSPropertyOp29
 70
     1
102
RTVSPropertyOp30
 70
     1
102
RTVSPropertyOp31
 70
     1
102
RTVSPropertyOp32
 70
     1
102
RTVSPropertyOp33
 70
     1
102
RTVSPropertyOp34
 70
     1
102
RTVSPropertyOp35
 70
     1
102
RTVSPropertyOp36
 70
     1
102
RTVSPropertyOp37
 70
     1
102
RTVSPropertyOp38
 70
     1
102
RTVSPropertyOp39
 70
     1
102
RTVSPropertyOp40
 70
     1
102
RTVSPropertyOp41
 70
     1
102
RTVSPropertyOp42
 70
     1
102
RTVSPropertyOp43
 70
     1
102
RTVSPropertyOp44
 70
     1
102
RTVSPropertyOp45
 70
     1
102
RTVSPropertyOp46
 70
     1
102
RTVSPropertyOp47
 70
     1
102
RTVSPropertyOp48
 70
     1
102
RTVSPropertyOp49
 70
     1
102
RTVSPropertyOp50
 70
     1
102
RTVSPropertyOp51
 70
     0
102
RTVSPropertyOp52
 70
     0
102
RTVSPropertyOp53
 70
     1
102
RTVSPropertyOp54
 70
     1
102
RTVSPropertyOp55
 70
     1
102
RTVSPropertyOp56
 70
     1
102
RTVSPropertyOp57
 70
     1
102
RTVSPost2010Prop28
280
     0
102
RTVSPost2010PropOp28
 70
     1
102
RTVSPost2010Prop29
280
     1
102
RTVSPost2010PropOp29
 70
     1
102
RTVSPost2010Prop30
280
     1
102
RTVSPost2010PropOp30
 70
     1
102
RTVSPost2010Prop31
280
     0
102
RTVSPost2010PropOp31
 70
     1
102
RTVSPost2010Prop32
280
     0
102
RTVSPost2010PropOp32
 70
     1
102
RTVSPost2010Prop33
280
     0
102
RTVSPost2010PropOp33
 70
     1
102
RTVSPost2010Prop34
280
     0
102
RTVSPost2010PropOp34
 70
     1
102
RTVSPost2010Prop35
280
     0
102
RTVSPost2010PropOp35
 70
     1
102
RTVSPost2010Prop36
280
     0
102
RTVSPost2010PropOp36
 70
     1
102
RTVSPost2010Prop37
 90
       50
102
RTVSPost2010PropOp37
 70
     1
102
RTVSPost2010Prop38
140
0.0
102
RTVSPost2010PropOp38
 70
     1
102
RTVSPost2010Prop39
140
1.0
102
RTVSPost2010PropOp39
 70
     1
102
RTVSPost2010Prop40
 90
        0
102
RTVSPost2010PropOp40
 70
     1
102
RTVSPost2010Prop41ColorIndex
 90
       18
102
RTVSPost2010Prop41ColorRGB
 90
        0
102
RTVSPost2010PropOp41
 70
     1
102
RTVSPost2010Prop42
 90
       50
102
RTVSPost2010PropOp42
 70
     1
102
RTVSPost2010Prop43
 90
        3
102
RTVSPost2010PropOp43
 70
     1
102
RTVSPost2010Prop44ColorIndex
 90
        5
102
RTVSPost2010Prop44ColorRGB
 90
      255
102
RTVSPost2010PropOp44
 70
     1
102
RTVSPost2010Prop45
280
     0
102
RTVSPost2010PropOp45
 70
     1
102
RTVSPost2010Prop46
 90
       50
102
RTVSPost2010PropOp46
 70
     1
102
RTVSPost2010Prop47
 90
       50
102
RTVSPost2010PropOp47
 70
     1
102
RTVSPost2010Prop48
 90
       50
102
RTVSPost2010PropOp48
 70
     1
102
RTVSPost2010Prop49
280
     0
102
RTVSPost2010PropOp49
 70
     1
102
RTVSPost2010Prop50
 90
       50
102
RTVSPost2010PropOp50
 70
     1
102
RTVSPost2010Prop51ColorIndex
 90
      256
102
RTVSPost2010Prop51ColorRGB
 90
-16777216
102
RTVSPost2010PropOp51
 70
     0
102
RTVSPost2010Prop52
140
1.0
102
RTVSPost2010PropOp52
 70
     0
102
RTVSPost2010Prop53
 90
        2
102
RTVSPost2010PropOp53
 70
     1
102
RTVSPost2010Prop54
  1
strokes_ogs.tif
102
RTVSPost2010PropOp54
 70
     1
102
RTVSPost2010Prop55
280
     0
102
RTVSPost2010PropOp55
 70
     1
102
RTVSPost2010Prop56
140
1.0
102
RTVSPost2010PropOp56
 70
     1
102
RTVSPost2010Prop57
140
1.0
102
RTVSPost2010PropOp57
 70
     1
  0
XRECORD
  5
40A
102
{ACAD_REACTORS
330
409
102
}
330
409
100
AcDbXrecord
280
     1
102
RTVSPropertyOp0
 70
     1
102
RTVSPropertyOp1
 70
     1
102
RTVSPropertyOp2
 70
     1
102
RTVSPropertyOp3
 70
     1
102
RTVSPropertyOp4
 70
     1
102
RTVSPropertyOp5
 70
     1
102
RTVSPropertyOp6
 70
     1
102
RTVSPropertyOp7
 70
     1
102
RTVSPropertyOp8
 70
     1
102
RTVSPropertyOp9
 70
     1
102
RTVSPropertyOp10
 70
     1
102
RTVSPropertyOp11
 70
     1
102
RTVSPropertyOp12
 70
     1
102
RTVSPropertyOp13
 70
     1
102
RTVSPropertyOp14
 70
     1
102
RTVSPropertyOp15
 70
     1
102
RTVSPropertyOp16
 70
     1
102
RTVSPropertyOp17
 70
     1
102
RTVSPropertyOp18
 70
     1
102
RTVSPropertyOp19
 70
     1
102
RTVSPropertyOp20
 70
     1
102
RTVSPropertyOp21
 70
     1
102
RTVSPropertyOp22
 70
     1
102
RTVSPropertyOp23
 70
     1
102
RTVSPropertyOp24
 70
     1
102
RTVSPropertyOp25
 70
     1
102
RTVSPropertyOp26
 70
     1
102
RTVSPropertyOp27
 70
     1
102
RTVSPropertyOp28
 70
     1
102
RTVSPropertyOp29
 70
     1
102
RTVSPropertyOp30
 70
     1
102
RTVSPropertyOp31
 70
     1
102
RTVSPropertyOp32
 70
     1
102
RTVSPropertyOp33
 70
     1
102
RTVSPropertyOp34
 70
     1
102
RTVSPropertyOp35
 70
     1
102
RTVSPropertyOp36
 70
     1
102
RTVSPropertyOp37
 70
     1
102
RTVSPropertyOp38
 70
     1
102
RTVSPropertyOp39
 70
     1
102
RTVSPropertyOp40
 70
     1
102
RTVSPropertyOp41
 70
     1
102
RTVSPropertyOp42
 70
     1
102
RTVSPropertyOp43
 70
     1
102
RTVSPropertyOp44
 70
     1
102
RTVSPropertyOp45
 70
     1
102
RTVSPropertyOp46
 70
     1
102
RTVSPropertyOp47
 70
     1
102
RTVSPropertyOp48
 70
     1
102
RTVSPropertyOp49
 70
     1
102
RTVSPropertyOp50
 70
     1
102
RTVSPropertyOp51
 70
     0
102
RTVSPropertyOp52
 70
     0
102
RTVSPropertyOp53
 70
     1
102
RTVSPropertyOp54
 70
     1
102
RTVSPropertyOp55
 70
     1
102
RTVSPropertyOp56
 70
     1
102
RTVSPropertyOp57
 70
     1
102
RTVSPost2010Prop28
280
     0
102
RTVSPost2010PropOp28
 70
     1
102
RTVSPost2010Prop29
280
     1
102
RTVSPost2010PropOp29
 70
     1
102
RTVSPost2010Prop30
280
     1
102
RTVSPost2010PropOp30
 70
     1
102
RTVSPost2010Prop31
280
     0
102
RTVSPost2010PropOp31
 70
     1
102
RTVSPost2010Prop32
280
     0
102
RTVSPost2010PropOp32
 70
     1
102
RTVSPost2010Prop33
280
     0
102
RTVSPost2010PropOp33
 70
     1
102
RTVSPost2010Prop34
280
     0
102
RTVSPost2010PropOp34
 70
     1
102
RTVSPost2010Prop35
280
     0
102
RTVSPost2010PropOp35
 70
     1
102
RTVSPost2010Prop36
280
     0
102
RTVSPost2010PropOp36
 70
     1
102
RTVSPost2010Prop37
 90
       50
102
RTVSPost2010PropOp37
 70
     1
102
RTVSPost2010Prop38
140
0.0
102
RTVSPost2010PropOp38
 70
     1
102
RTVSPost2010Prop39
140
1.0
102
RTVSPost2010PropOp39
 70
     1
102
RTVSPost2010Prop40
 90
        0
102
RTVSPost2010PropOp40
 70
     1
102
RTVSPost2010Prop41ColorIndex
 90
       18
102
RTVSPost2010Prop41ColorRGB
 90
        0
102
RTVSPost2010PropOp41
 70
     1
102
RTVSPost2010Prop42
 90
       50
102
RTVSPost2010PropOp42
 70
     1
102
RTVSPost2010Prop43
 90
        3
102
RTVSPost2010PropOp43
 70
     1
102
RTVSPost2010Prop44ColorIndex
 90
        5
102
RTVSPost2010Prop44ColorRGB
 90
      255
102
RTVSPost2010PropOp44
 70
     1
102
RTVSPost2010Prop45
280
     0
102
RTVSPost2010PropOp45
 70
     1
102
RTVSPost2010Prop46
 90
       50
102
RTVSPost2010PropOp46
 70
     1
102
RTVSPost2010Prop47
 90
       50
102
RTVSPost2010PropOp47
 70
     1
102
RTVSPost2010Prop48
 90
       50
102
RTVSPost2010PropOp48
 70
     1
102
RTVSPost2010Prop49
280
     0
102
RTVSPost2010PropOp49
 70
     1
102
RTVSPost2010Prop50
 90
       50
102
RTVSPost2010PropOp50
 70
     1
102
RTVSPost2010Prop51ColorIndex
 90
      256
102
RTVSPost2010Prop51ColorRGB
 90
-16777216
102
RTVSPost2010PropOp51
 70
     0
102
RTVSPost2010Prop52
140
1.0
102
RTVSPost2010PropOp52
 70
     0
102
RTVSPost2010Prop53
 90
        2
102
RTVSPost2010PropOp53
 70
     1
102
RTVSPost2010Prop54
  1
strokes_ogs.tif
102
RTVSPost2010PropOp54
 70
     1
102
RTVSPost2010Prop55
280
     0
102
RTVSPost2010PropOp55
 70
     1
102
RTVSPost2010Prop56
140
1.0
102
RTVSPost2010PropOp56
 70
     1
102
RTVSPost2010Prop57
140
1.0
102
RTVSPost2010PropOp57
 70
     1
  0
XRECORD
  5
40C
102
{ACAD_REACTORS
330
40B
102
}
330
40B
100
AcDbXrecord
280
     1
102
RTVSPropertyOp0
 70
     1
102
RTVSPropertyOp1
 70
     1
102
RTVSPropertyOp2
 70
     1
102
RTVSPropertyOp3
 70
     1
102
RTVSPropertyOp4
 70
     1
102
RTVSPropertyOp5
 70
     1
102
RTVSPropertyOp6
 70
     1
102
RTVSPropertyOp7
 70
     1
102
RTVSPropertyOp8
 70
     1
102
RTVSPropertyOp9
 70
     1
102
RTVSPropertyOp10
 70
     1
102
RTVSPropertyOp11
 70
     1
102
RTVSPropertyOp12
 70
     1
102
RTVSPropertyOp13
 70
     1
102
RTVSPropertyOp14
 70
     1
102
RTVSPropertyOp15
 70
     1
102
RTVSPropertyOp16
 70
     1
102
RTVSPropertyOp17
 70
     1
102
RTVSPropertyOp18
 70
     1
102
RTVSPropertyOp19
 70
     1
102
RTVSPropertyOp20
 70
     1
102
RTVSPropertyOp21
 70
     1
102
RTVSPropertyOp22
 70
     1
102
RTVSPropertyOp23
 70
     1
102
RTVSPropertyOp24
 70
     1
102
RTVSPropertyOp25
 70
     1
102
RTVSPropertyOp26
 70
     1
102
RTVSPropertyOp27
 70
     1
102
RTVSPropertyOp28
 70
     1
102
RTVSPropertyOp29
 70
     1
102
RTVSPropertyOp30
 70
     1
102
RTVSPropertyOp31
 70
     1
102
RTVSPropertyOp32
 70
     1
102
RTVSPropertyOp33
 70
     1
102
RTVSPropertyOp34
 70
     1
102
RTVSPropertyOp35
 70
     1
102
RTVSPropertyOp36
 70
     1
102
RTVSPropertyOp37
 70
     1
102
RTVSPropertyOp38
 70
     1
102
RTVSPropertyOp39
 70
     1
102
RTVSPropertyOp40
 70
     1
102
RTVSPropertyOp41
 70
     1
102
RTVSPropertyOp42
 70
     1
102
RTVSPropertyOp43
 70
     1
102
RTVSPropertyOp44
 70
     1
102
RTVSPropertyOp45
 70
     1
102
RTVSPropertyOp46
 70
     1
102
RTVSPropertyOp47
 70
     1
102
RTVSPropertyOp48
 70
     1
102
RTVSPropertyOp49
 70
     1
102
RTVSPropertyOp50
 70
     1
102
RTVSPropertyOp51
 70
     0
102
RTVSPropertyOp52
 70
     0
102
RTVSPropertyOp53
 70
     1
102
RTVSPropertyOp54
 70
     1
102
RTVSPropertyOp55
 70
     1
102
RTVSPropertyOp56
 70
     1
102
RTVSPropertyOp57
 70
     1
102
RTVSPost2010Prop28
280
     0
102
RTVSPost2010PropOp28
 70
     1
102
RTVSPost2010Prop29
280
     1
102
RTVSPost2010PropOp29
 70
     1
102
RTVSPost2010Prop30
280
     1
102
RTVSPost2010PropOp30
 70
     1
102
RTVSPost2010Prop31
280
     0
102
RTVSPost2010PropOp31
 70
     1
102
RTVSPost2010Prop32
280
     0
102
RTVSPost2010PropOp32
 70
     1
102
RTVSPost2010Prop33
280
     0
102
RTVSPost2010PropOp33
 70
     1
102
RTVSPost2010Prop34
280
     0
102
RTVSPost2010PropOp34
 70
     1
102
RTVSPost2010Prop35
280
     0
102
RTVSPost2010PropOp35
 70
     1
102
RTVSPost2010Prop36
280
     0
102
RTVSPost2010PropOp36
 70
     1
102
RTVSPost2010Prop37
 90
       50
102
RTVSPost2010PropOp37
 70
     1
102
RTVSPost2010Prop38
140
0.0
102
RTVSPost2010PropOp38
 70
     1
102
RTVSPost2010Prop39
140
1.0
102
RTVSPost2010PropOp39
 70
     1
102
RTVSPost2010Prop40
 90
        0
102
RTVSPost2010PropOp40
 70
     1
102
RTVSPost2010Prop41ColorIndex
 90
       18
102
RTVSPost2010Prop41ColorRGB
 90
        0
102
RTVSPost2010PropOp41
 70
     1
102
RTVSPost2010Prop42
 90
       50
102
RTVSPost2010PropOp42
 70
     1
102
RTVSPost2010Prop43
 90
        3
102
RTVSPost2010PropOp43
 70
     1
102
RTVSPost2010Prop44ColorIndex
 90
        5
102
RTVSPost2010Prop44ColorRGB
 90
      255
102
RTVSPost2010PropOp44
 70
     1
102
RTVSPost2010Prop45
280
     0
102
RTVSPost2010PropOp45
 70
     1
102
RTVSPost2010Prop46
 90
       50
102
RTVSPost2010PropOp46
 70
     1
102
RTVSPost2010Prop47
 90
       50
102
RTVSPost2010PropOp47
 70
     1
102
RTVSPost2010Prop48
 90
       50
102
RTVSPost2010PropOp48
 70
     1
102
RTVSPost2010Prop49
280
     0
102
RTVSPost2010PropOp49
 70
     1
102
RTVSPost2010Prop50
 90
       50
102
RTVSPost2010PropOp50
 70
     1
102
RTVSPost2010Prop51ColorIndex
 90
      256
102
RTVSPost2010Prop51ColorRGB
 90
-16777216
102
RTVSPost2010PropOp51
 70
     0
102
RTVSPost2010Prop52
140
1.0
102
RTVSPost2010PropOp52
 70
     0
102
RTVSPost2010Prop53
 90
        2
102
RTVSPost2010PropOp53
 70
     1
102
RTVSPost2010Prop54
  1
strokes_ogs.tif
102
RTVSPost2010PropOp54
 70
     1
102
RTVSPost2010Prop55
280
     0
102
RTVSPost2010PropOp55
 70
     1
102
RTVSPost2010Prop56
140
1.0
102
RTVSPost2010PropOp56
 70
     1
102
RTVSPost2010Prop57
140
1.0
102
RTVSPost2010PropOp57
 70
     1
  0
XRECORD
  5
412
102
{ACAD_REACTORS
330
411
102
}
330
411
100
AcDbXrecord
280
     1
102
RTVSPropertyOp0
 70
     1
102
RTVSPropertyOp1
 70
     1
102
RTVSPropertyOp2
 70
     1
102
RTVSPropertyOp3
 70
     1
102
RTVSPropertyOp4
 70
     1
102
RTVSPropertyOp5
 70
     1
102
RTVSPropertyOp6
 70
     1
102
RTVSPropertyOp7
 70
     1
102
RTVSPropertyOp8
 70
     1
102
RTVSPropertyOp9
 70
     1
102
RTVSPropertyOp10
 70
     1
102
RTVSPropertyOp11
 70
     1
102
RTVSPropertyOp12
 70
     1
102
RTVSPropertyOp13
 70
     1
102
RTVSPropertyOp14
 70
     1
102
RTVSPropertyOp15
 70
     1
102
RTVSPropertyOp16
 70
     1
102
RTVSPropertyOp17
 70
     1
102
RTVSPropertyOp18
 70
     1
102
RTVSPropertyOp19
 70
     1
102
RTVSPropertyOp20
 70
     1
102
RTVSPropertyOp21
 70
     1
102
RTVSPropertyOp22
 70
     1
102
RTVSPropertyOp23
 70
     1
102
RTVSPropertyOp24
 70
     1
102
RTVSPropertyOp25
 70
     1
102
RTVSPropertyOp26
 70
     1
102
RTVSPropertyOp27
 70
     1
102
RTVSPropertyOp28
 70
     1
102
RTVSPropertyOp29
 70
     1
102
RTVSPropertyOp30
 70
     1
102
RTVSPropertyOp31
 70
     1
102
RTVSPropertyOp32
 70
     1
102
RTVSPropertyOp33
 70
     1
102
RTVSPropertyOp34
 70
     1
102
RTVSPropertyOp35
 70
     1
102
RTVSPropertyOp36
 70
     1
102
RTVSPropertyOp37
 70
     1
102
RTVSPropertyOp38
 70
     1
102
RTVSPropertyOp39
 70
     1
102
RTVSPropertyOp40
 70
     1
102
RTVSPropertyOp41
 70
     1
102
RTVSPropertyOp42
 70
     1
102
RTVSPropertyOp43
 70
     1
102
RTVSPropertyOp44
 70
     1
102
RTVSPropertyOp45
 70
     1
102
RTVSPropertyOp46
 70
     1
102
RTVSPropertyOp47
 70
     1
102
RTVSPropertyOp48
 70
     1
102
RTVSPropertyOp49
 70
     1
102
RTVSPropertyOp50
 70
     1
102
RTVSPropertyOp51
 70
     0
102
RTVSPropertyOp52
 70
     0
102
RTVSPropertyOp53
 70
     1
102
RTVSPropertyOp54
 70
     1
102
RTVSPropertyOp55
 70
     1
102
RTVSPropertyOp56
 70
     1
102
RTVSPropertyOp57
 70
     1
102
RTVSPost2010Prop28
280
     0
102
RTVSPost2010PropOp28
 70
     1
102
RTVSPost2010Prop29
280
     1
102
RTVSPost2010PropOp29
 70
     1
102
RTVSPost2010Prop30
280
     1
102
RTVSPost2010PropOp30
 70
     1
102
RTVSPost2010Prop31
280
     0
102
RTVSPost2010PropOp31
 70
     1
102
RTVSPost2010Prop32
280
     0
102
RTVSPost2010PropOp32
 70
     1
102
RTVSPost2010Prop33
280
     0
102
RTVSPost2010PropOp33
 70
     1
102
RTVSPost2010Prop34
280
     0
102
RTVSPost2010PropOp34
 70
     1
102
RTVSPost2010Prop35
280
     0
102
RTVSPost2010PropOp35
 70
     1
102
RTVSPost2010Prop36
280
     0
102
RTVSPost2010PropOp36
 70
     1
102
RTVSPost2010Prop37
 90
       50
102
RTVSPost2010PropOp37
 70
     1
102
RTVSPost2010Prop38
140
0.0
102
RTVSPost2010PropOp38
 70
     1
102
RTVSPost2010Prop39
140
1.0
102
RTVSPost2010PropOp39
 70
     1
102
RTVSPost2010Prop40
 90
        0
102
RTVSPost2010PropOp40
 70
     1
102
RTVSPost2010Prop41ColorIndex
 90
       18
102
RTVSPost2010Prop41ColorRGB
 90
        0
102
RTVSPost2010PropOp41
 70
     1
102
RTVSPost2010Prop42
 90
       50
102
RTVSPost2010PropOp42
 70
     1
102
RTVSPost2010Prop43
 90
        3
102
RTVSPost2010PropOp43
 70
     1
102
RTVSPost2010Prop44ColorIndex
 90
        5
102
RTVSPost2010Prop44ColorRGB
 90
      255
102
RTVSPost2010PropOp44
 70
     1
102
RTVSPost2010Prop45
280
     0
102
RTVSPost2010PropOp45
 70
     1
102
RTVSPost2010Prop46
 90
       50
102
RTVSPost2010PropOp46
 70
     1
102
RTVSPost2010Prop47
 90
       50
102
RTVSPost2010PropOp47
 70
     1
102
RTVSPost2010Prop48
 90
       50
102
RTVSPost2010PropOp48
 70
     1
102
RTVSPost2010Prop49
280
     0
102
RTVSPost2010PropOp49
 70
     1
102
RTVSPost2010Prop50
 90
       50
102
RTVSPost2010PropOp50
 70
     1
102
RTVSPost2010Prop51ColorIndex
 90
      256
102
RTVSPost2010Prop51ColorRGB
 90
-16777216
102
RTVSPost2010PropOp51
 70
     0
102
RTVSPost2010Prop52
140
1.0
102
RTVSPost2010PropOp52
 70
     0
102
RTVSPost2010Prop53
 90
        2
102
RTVSPost2010PropOp53
 70
     1
102
RTVSPost2010Prop54
  1
strokes_ogs.tif
102
RTVSPost2010PropOp54
 70
     1
102
RTVSPost2010Prop55
280
     0
102
RTVSPost2010PropOp55
 70
     1
102
RTVSPost2010Prop56
140
1.0
102
RTVSPost2010PropOp56
 70
     1
102
RTVSPost2010Prop57
140
1.0
102
RTVSPost2010PropOp57
 70
     1
  0
XRECORD
  5
426
102
{ACAD_REACTORS
330
425
102
}
330
425
100
AcDbXrecord
280
     1
102
RTVSPropertyOp0
 70
     0
102
RTVSPropertyOp1
 70
     0
102
RTVSPropertyOp2
 70
     0
102
RTVSPropertyOp3
 70
     0
102
RTVSPropertyOp4
 70
     0
102
RTVSPropertyOp5
 70
     0
102
RTVSPropertyOp6
 70
     0
102
RTVSPropertyOp7
 70
     0
102
RTVSPropertyOp8
 70
     0
102
RTVSPropertyOp9
 70
     0
102
RTVSPropertyOp10
 70
     0
102
RTVSPropertyOp11
 70
     0
102
RTVSPropertyOp12
 70
     0
102
RTVSPropertyOp13
 70
     0
102
RTVSPropertyOp14
 70
     2
102
RTVSPropertyOp15
 70
     0
102
RTVSPropertyOp16
 70
     0
102
RTVSPropertyOp17
 70
     0
102
RTVSPropertyOp18
 70
     0
102
RTVSPropertyOp19
 70
     0
102
RTVSPropertyOp20
 70
     0
102
RTVSPropertyOp21
 70
     0
102
RTVSPropertyOp22
 70
     0
102
RTVSPropertyOp23
 70
     0
102
RTVSPropertyOp24
 70
     0
102
RTVSPropertyOp25
 70
     0
102
RTVSPropertyOp26
 70
     0
102
RTVSPropertyOp27
 70
     0
102
RTVSPropertyOp28
 70
     0
102
RTVSPropertyOp29
 70
     0
102
RTVSPropertyOp30
 70
     0
102
RTVSPropertyOp31
 70
     0
102
RTVSPropertyOp32
 70
     0
102
RTVSPropertyOp33
 70
     0
102
RTVSPropertyOp34
 70
     0
102
RTVSPropertyOp35
 70
     0
102
RTVSPropertyOp36
 70
     0
102
RTVSPropertyOp37
 70
     0
102
RTVSPropertyOp38
 70
     0
102
RTVSPropertyOp39
 70
     0
102
RTVSPropertyOp40
 70
     0
102
RTVSPropertyOp41
 70
     0
102
RTVSPropertyOp42
 70
     0
102
RTVSPropertyOp43
 70
     0
102
RTVSPropertyOp44
 70
     0
102
RTVSPropertyOp45
 70
     0
102
RTVSPropertyOp46
 70
     0
102
RTVSPropertyOp47
 70
     0
102
RTVSPropertyOp48
 70
     0
102
RTVSPropertyOp49
 70
     0
102
RTVSPropertyOp50
 70
     0
102
RTVSPropertyOp51
 70
     0
102
RTVSPropertyOp52
 70
     0
102
RTVSPropertyOp53
 70
     0
102
RTVSPropertyOp54
 70
     0
102
RTVSPropertyOp55
 70
     0
102
RTVSPropertyOp56
 70
     0
102
RTVSPropertyOp57
 70
     0
102
RTVSPost2010Prop28
280
     0
102
RTVSPost2010PropOp28
 70
     0
102
RTVSPost2010Prop29
280
     1
102
RTVSPost2010PropOp29
 70
     0
102
RTVSPost2010Prop30
280
     1
102
RTVSPost2010PropOp30
 70
     0
102
RTVSPost2010Prop31
280
     0
102
RTVSPost2010PropOp31
 70
     0
102
RTVSPost2010Prop32
280
     0
102
RTVSPost2010PropOp32
 70
     0
102
RTVSPost2010Prop33
280
     0
102
RTVSPost2010PropOp33
 70
     0
102
RTVSPost2010Prop34
280
     0
102
RTVSPost2010PropOp34
 70
     0
102
RTVSPost2010Prop35
280
     0
102
RTVSPost2010PropOp35
 70
     0
102
RTVSPost2010Prop36
280
     0
102
RTVSPost2010PropOp36
 70
     0
102
RTVSPost2010Prop37
 90
       50
102
RTVSPost2010PropOp37
 70
     0
102
RTVSPost2010Prop38
140
0.0
102
RTVSPost2010PropOp38
 70
     0
102
RTVSPost2010Prop39
140
1.0
102
RTVSPost2010PropOp39
 70
     0
102
RTVSPost2010Prop40
 90
        0
102
RTVSPost2010PropOp40
 70
     0
102
RTVSPost2010Prop41ColorIndex
 90
       18
102
RTVSPost2010Prop41ColorRGB
 90
        0
102
RTVSPost2010PropOp41
 70
     0
102
RTVSPost2010Prop42
 90
       50
102
RTVSPost2010PropOp42
 70
     0
102
RTVSPost2010Prop43
 90
        3
102
RTVSPost2010PropOp43
 70
     0
102
RTVSPost2010Prop44ColorIndex
 90
        5
102
RTVSPost2010Prop44ColorRGB
 90
      255
102
RTVSPost2010PropOp44
 70
     0
102
RTVSPost2010Prop45
280
     0
102
RTVSPost2010PropOp45
 70
     0
102
RTVSPost2010Prop46
 90
       50
102
RTVSPost2010PropOp46
 70
     0
102
RTVSPost2010Prop47
 90
       50
102
RTVSPost2010PropOp47
 70
     0
102
RTVSPost2010Prop48
 90
       50
102
RTVSPost2010PropOp48
 70
     0
102
RTVSPost2010Prop49
280
     0
102
RTVSPost2010PropOp49
 70
     0
102
RTVSPost2010Prop50
 90
       50
102
RTVSPost2010PropOp50
 70
     0
102
RTVSPost2010Prop51ColorIndex
 90
      256
102
RTVSPost2010Prop51ColorRGB
 90
-16777216
102
RTVSPost2010PropOp51
 70
     0
102
RTVSPost2010Prop52
140
1.0
102
RTVSPost2010PropOp52
 70
     0
102
RTVSPost2010Prop53
 90
        2
102
RTVSPost2010PropOp53
 70
     0
102
RTVSPost2010Prop54
  1
strokes_ogs.tif
102
RTVSPost2010PropOp54
 70
     0
102
RTVSPost2010Prop55
280
     0
102
RTVSPost2010PropOp55
 70
     0
102
RTVSPost2010Prop56
140
1.0
102
RTVSPost2010PropOp56
 70
     0
102
RTVSPost2010Prop57
140
1.0
102
RTVSPost2010PropOp57
 70
     0
  0
XRECORD
  5
420
102
{ACAD_REACTORS
330
41F
102
}
330
41F
100
AcDbXrecord
280
     1
102
RTVSPropertyOp0
 70
     1
102
RTVSPropertyOp1
 70
     1
102
RTVSPropertyOp2
 70
     1
102
RTVSPropertyOp3
 70
     1
102
RTVSPropertyOp4
 70
     1
102
RTVSPropertyOp5
 70
     1
102
RTVSPropertyOp6
 70
     1
102
RTVSPropertyOp7
 70
     1
102
RTVSPropertyOp8
 70
     1
102
RTVSPropertyOp9
 70
     1
102
RTVSPropertyOp10
 70
     1
102
RTVSPropertyOp11
 70
     1
102
RTVSPropertyOp12
 70
     1
102
RTVSPropertyOp13
 70
     1
102
RTVSPropertyOp14
 70
     1
102
RTVSPropertyOp15
 70
     1
102
RTVSPropertyOp16
 70
     1
102
RTVSPropertyOp17
 70
     1
102
RTVSPropertyOp18
 70
     1
102
RTVSPropertyOp19
 70
     1
102
RTVSPropertyOp20
 70
     1
102
RTVSPropertyOp21
 70
     1
102
RTVSPropertyOp22
 70
     1
102
RTVSPropertyOp23
 70
     1
102
RTVSPropertyOp24
 70
     1
102
RTVSPropertyOp25
 70
     1
102
RTVSPropertyOp26
 70
     1
102
RTVSPropertyOp27
 70
     1
102
RTVSPropertyOp28
 70
     1
102
RTVSPropertyOp29
 70
     1
102
RTVSPropertyOp30
 70
     1
102
RTVSPropertyOp31
 70
     1
102
RTVSPropertyOp32
 70
     1
102
RTVSPropertyOp33
 70
     1
102
RTVSPropertyOp34
 70
     1
102
RTVSPropertyOp35
 70
     1
102
RTVSPropertyOp36
 70
     1
102
RTVSPropertyOp37
 70
     1
102
RTVSPropertyOp38
 70
     1
102
RTVSPropertyOp39
 70
     1
102
RTVSPropertyOp40
 70
     1
102
RTVSPropertyOp41
 70
     1
102
RTVSPropertyOp42
 70
     1
102
RTVSPropertyOp43
 70
     1
102
RTVSPropertyOp44
 70
     1
102
RTVSPropertyOp45
 70
     1
102
RTVSPropertyOp46
 70
     1
102
RTVSPropertyOp47
 70
     1
102
RTVSPropertyOp48
 70
     1
102
RTVSPropertyOp49
 70
     1
102
RTVSPropertyOp50
 70
     1
102
RTVSPropertyOp51
 70
     0
102
RTVSPropertyOp52
 70
     0
102
RTVSPropertyOp53
 70
     1
102
RTVSPropertyOp54
 70
     1
102
RTVSPropertyOp55
 70
     1
102
RTVSPropertyOp56
 70
     1
102
RTVSPropertyOp57
 70
     1
102
RTVSPost2010Prop28
280
     0
102
RTVSPost2010PropOp28
 70
     1
102
RTVSPost2010Prop29
280
     1
102
RTVSPost2010PropOp29
 70
     1
102
RTVSPost2010Prop30
280
     1
102
RTVSPost2010PropOp30
 70
     1
102
RTVSPost2010Prop31
280
     0
102
RTVSPost2010PropOp31
 70
     1
102
RTVSPost2010Prop32
280
     0
102
RTVSPost2010PropOp32
 70
     1
102
RTVSPost2010Prop33
280
     0
102
RTVSPost2010PropOp33
 70
     1
102
RTVSPost2010Prop34
280
     0
102
RTVSPost2010PropOp34
 70
     1
102
RTVSPost2010Prop35
280
     0
102
RTVSPost2010PropOp35
 70
     1
102
RTVSPost2010Prop36
280
     0
102
RTVSPost2010PropOp36
 70
     1
102
RTVSPost2010Prop37
 90
       50
102
RTVSPost2010PropOp37
 70
     1
102
RTVSPost2010Prop38
140
0.0
102
RTVSPost2010PropOp38
 70
     1
102
RTVSPost2010Prop39
140
1.0
102
RTVSPost2010PropOp39
 70
     1
102
RTVSPost2010Prop40
 90
        0
102
RTVSPost2010PropOp40
 70
     1
102
RTVSPost2010Prop41ColorIndex
 90
       18
102
RTVSPost2010Prop41ColorRGB
 90
        0
102
RTVSPost2010PropOp41
 70
     1
102
RTVSPost2010Prop42
 90
       50
102
RTVSPost2010PropOp42
 70
     1
102
RTVSPost2010Prop43
 90
        3
102
RTVSPost2010PropOp43
 70
     1
102
RTVSPost2010Prop44ColorIndex
 90
        5
102
RTVSPost2010Prop44ColorRGB
 90
      255
102
RTVSPost2010PropOp44
 70
     1
102
RTVSPost2010Prop45
280
     0
102
RTVSPost2010PropOp45
 70
     1
102
RTVSPost2010Prop46
 90
       50
102
RTVSPost2010PropOp46
 70
     1
102
RTVSPost2010Prop47
 90
       50
102
RTVSPost2010PropOp47
 70
     1
102
RTVSPost2010Prop48
 90
       50
102
RTVSPost2010PropOp48
 70
     1
102
RTVSPost2010Prop49
280
     0
102
RTVSPost2010PropOp49
 70
     1
102
RTVSPost2010Prop50
 90
       50
102
RTVSPost2010PropOp50
 70
     1
102
RTVSPost2010Prop51ColorIndex
 90
      256
102
RTVSPost2010Prop51ColorRGB
 90
-16777216
102
RTVSPost2010PropOp51
 70
     0
102
RTVSPost2010Prop52
140
1.0
102
RTVSPost2010PropOp52
 70
     0
102
RTVSPost2010Prop53
 90
        2
102
RTVSPost2010PropOp53
 70
     1
102
RTVSPost2010Prop54
  1
strokes_ogs.tif
102
RTVSPost2010PropOp54
 70
     1
102
RTVSPost2010Prop55
280
     0
102
RTVSPost2010PropOp55
 70
     1
102
RTVSPost2010Prop56
140
1.0
102
RTVSPost2010PropOp56
 70
     1
102
RTVSPost2010Prop57
140
1.0
102
RTVSPost2010PropOp57
 70
     1
  0
XRECORD
  5
428
102
{ACAD_REACTORS
330
427
102
}
330
427
100
AcDbXrecord
280
     1
102
RTVSPropertyOp0
 70
     0
102
RTVSPropertyOp1
 70
     0
102
RTVSPropertyOp2
 70
     0
102
RTVSPropertyOp3
 70
     0
102
RTVSPropertyOp4
 70
     0
102
RTVSPropertyOp5
 70
     0
102
RTVSPropertyOp6
 70
     0
102
RTVSPropertyOp7
 70
     0
102
RTVSPropertyOp8
 70
     0
102
RTVSPropertyOp9
 70
     0
102
RTVSPropertyOp10
 70
     0
102
RTVSPropertyOp11
 70
     0
102
RTVSPropertyOp12
 70
     0
102
RTVSPropertyOp13
 70
     0
102
RTVSPropertyOp14
 70
     2
102
RTVSPropertyOp15
 70
     0
102
RTVSPropertyOp16
 70
     0
102
RTVSPropertyOp17
 70
     0
102
RTVSPropertyOp18
 70
     0
102
RTVSPropertyOp19
 70
     0
102
RTVSPropertyOp20
 70
     0
102
RTVSPropertyOp21
 70
     0
102
RTVSPropertyOp22
 70
     0
102
RTVSPropertyOp23
 70
     0
102
RTVSPropertyOp24
 70
     0
102
RTVSPropertyOp25
 70
     0
102
RTVSPropertyOp26
 70
     0
102
RTVSPropertyOp27
 70
     0
102
RTVSPropertyOp28
 70
     0
102
RTVSPropertyOp29
 70
     0
102
RTVSPropertyOp30
 70
     0
102
RTVSPropertyOp31
 70
     0
102
RTVSPropertyOp32
 70
     0
102
RTVSPropertyOp33
 70
     0
102
RTVSPropertyOp34
 70
     0
102
RTVSPropertyOp35
 70
     0
102
RTVSPropertyOp36
 70
     0
102
RTVSPropertyOp37
 70
     0
102
RTVSPropertyOp38
 70
     0
102
RTVSPropertyOp39
 70
     0
102
RTVSPropertyOp40
 70
     0
102
RTVSPropertyOp41
 70
     0
102
RTVSPropertyOp42
 70
     0
102
RTVSPropertyOp43
 70
     0
102
RTVSPropertyOp44
 70
     0
102
RTVSPropertyOp45
 70
     0
102
RTVSPropertyOp46
 70
     0
102
RTVSPropertyOp47
 70
     0
102
RTVSPropertyOp48
 70
     0
102
RTVSPropertyOp49
 70
     0
102
RTVSPropertyOp50
 70
     0
102
RTVSPropertyOp51
 70
     0
102
RTVSPropertyOp52
 70
     0
102
RTVSPropertyOp53
 70
     0
102
RTVSPropertyOp54
 70
     0
102
RTVSPropertyOp55
 70
     0
102
RTVSPropertyOp56
 70
     0
102
RTVSPropertyOp57
 70
     0
102
RTVSPost2010Prop28
280
     0
102
RTVSPost2010PropOp28
 70
     0
102
RTVSPost2010Prop29
280
     1
102
RTVSPost2010PropOp29
 70
     0
102
RTVSPost2010Prop30
280
     1
102
RTVSPost2010PropOp30
 70
     0
102
RTVSPost2010Prop31
280
     0
102
RTVSPost2010PropOp31
 70
     0
102
RTVSPost2010Prop32
280
     0
102
RTVSPost2010PropOp32
 70
     0
102
RTVSPost2010Prop33
280
     0
102
RTVSPost2010PropOp33
 70
     0
102
RTVSPost2010Prop34
280
     0
102
RTVSPost2010PropOp34
 70
     0
102
RTVSPost2010Prop35
280
     0
102
RTVSPost2010PropOp35
 70
     0
102
RTVSPost2010Prop36
280
     0
102
RTVSPost2010PropOp36
 70
     0
102
RTVSPost2010Prop37
 90
       50
102
RTVSPost2010PropOp37
 70
     0
102
RTVSPost2010Prop38
140
0.0
102
RTVSPost2010PropOp38
 70
     0
102
RTVSPost2010Prop39
140
1.0
102
RTVSPost2010PropOp39
 70
     0
102
RTVSPost2010Prop40
 90
        0
102
RTVSPost2010PropOp40
 70
     0
102
RTVSPost2010Prop41ColorIndex
 90
       18
102
RTVSPost2010Prop41ColorRGB
 90
        0
102
RTVSPost2010PropOp41
 70
     0
102
RTVSPost2010Prop42
 90
       50
102
RTVSPost2010PropOp42
 70
     0
102
RTVSPost2010Prop43
 90
        3
102
RTVSPost2010PropOp43
 70
     0
102
RTVSPost2010Prop44ColorIndex
 90
        5
102
RTVSPost2010Prop44ColorRGB
 90
      255
102
RTVSPost2010PropOp44
 70
     0
102
RTVSPost2010Prop45
280
     0
102
RTVSPost2010PropOp45
 70
     0
102
RTVSPost2010Prop46
 90
       50
102
RTVSPost2010PropOp46
 70
     0
102
RTVSPost2010Prop47
 90
       50
102
RTVSPost2010PropOp47
 70
     0
102
RTVSPost2010Prop48
 90
       50
102
RTVSPost2010PropOp48
 70
     0
102
RTVSPost2010Prop49
280
     0
102
RTVSPost2010PropOp49
 70
     0
102
RTVSPost2010Prop50
 90
       50
102
RTVSPost2010PropOp50
 70
     0
102
RTVSPost2010Prop51ColorIndex
 90
      256
102
RTVSPost2010Prop51ColorRGB
 90
-16777216
102
RTVSPost2010PropOp51
 70
     0
102
RTVSPost2010Prop52
140
1.0
102
RTVSPost2010PropOp52
 70
     0
102
RTVSPost2010Prop53
 90
        2
102
RTVSPost2010PropOp53
 70
     0
102
RTVSPost2010Prop54
  1
strokes_ogs.tif
102
RTVSPost2010PropOp54
 70
     0
102
RTVSPost2010Prop55
280
     0
102
RTVSPost2010PropOp55
 70
     0
102
RTVSPost2010Prop56
140
1.0
102
RTVSPost2010PropOp56
 70
     0
102
RTVSPost2010Prop57
140
1.0
102
RTVSPost2010PropOp57
 70
     0
  0
XRECORD
  5
416
102
{ACAD_REACTORS
330
415
102
}
330
415
100
AcDbXrecord
280
     1
102
RTVSPropertyOp0
 70
     1
102
RTVSPropertyOp1
 70
     1
102
RTVSPropertyOp2
 70
     1
102
RTVSPropertyOp3
 70
     1
102
RTVSPropertyOp4
 70
     1
102
RTVSPropertyOp5
 70
     1
102
RTVSPropertyOp6
 70
     1
102
RTVSPropertyOp7
 70
     1
102
RTVSPropertyOp8
 70
     1
102
RTVSPropertyOp9
 70
     1
102
RTVSPropertyOp10
 70
     1
102
RTVSPropertyOp11
 70
     1
102
RTVSPropertyOp12
 70
     1
102
RTVSPropertyOp13
 70
     1
102
RTVSPropertyOp14
 70
     1
102
RTVSPropertyOp15
 70
     1
102
RTVSPropertyOp16
 70
     1
102
RTVSPropertyOp17
 70
     1
102
RTVSPropertyOp18
 70
     1
102
RTVSPropertyOp19
 70
     1
102
RTVSPropertyOp20
 70
     1
102
RTVSPropertyOp21
 70
     1
102
RTVSPropertyOp22
 70
     1
102
RTVSPropertyOp23
 70
     1
102
RTVSPropertyOp24
 70
     1
102
RTVSPropertyOp25
 70
     1
102
RTVSPropertyOp26
 70
     1
102
RTVSPropertyOp27
 70
     1
102
RTVSPropertyOp28
 70
     1
102
RTVSPropertyOp29
 70
     1
102
RTVSPropertyOp30
 70
     1
102
RTVSPropertyOp31
 70
     1
102
RTVSPropertyOp32
 70
     1
102
RTVSPropertyOp33
 70
     1
102
RTVSPropertyOp34
 70
     1
102
RTVSPropertyOp35
 70
     1
102
RTVSPropertyOp36
 70
     1
102
RTVSPropertyOp37
 70
     1
102
RTVSPropertyOp38
 70
     1
102
RTVSPropertyOp39
 70
     1
102
RTVSPropertyOp40
 70
     1
102
RTVSPropertyOp41
 70
     1
102
RTVSPropertyOp42
 70
     1
102
RTVSPropertyOp43
 70
     1
102
RTVSPropertyOp44
 70
     1
102
RTVSPropertyOp45
 70
     1
102
RTVSPropertyOp46
 70
     1
102
RTVSPropertyOp47
 70
     1
102
RTVSPropertyOp48
 70
     1
102
RTVSPropertyOp49
 70
     1
102
RTVSPropertyOp50
 70
     1
102
RTVSPropertyOp51
 70
     0
102
RTVSPropertyOp52
 70
     0
102
RTVSPropertyOp53
 70
     1
102
RTVSPropertyOp54
 70
     1
102
RTVSPropertyOp55
 70
     1
102
RTVSPropertyOp56
 70
     1
102
RTVSPropertyOp57
 70
     1
102
RTVSPost2010Prop28
280
     0
102
RTVSPost2010PropOp28
 70
     1
102
RTVSPost2010Prop29
280
     1
102
RTVSPost2010PropOp29
 70
     1
102
RTVSPost2010Prop30
280
     1
102
RTVSPost2010PropOp30
 70
     1
102
RTVSPost2010Prop31
280
     0
102
RTVSPost2010PropOp31
 70
     1
102
RTVSPost2010Prop32
280
     0
102
RTVSPost2010PropOp32
 70
     1
102
RTVSPost2010Prop33
280
     0
102
RTVSPost2010PropOp33
 70
     1
102
RTVSPost2010Prop34
280
     0
102
RTVSPost2010PropOp34
 70
     1
102
RTVSPost2010Prop35
280
     0
102
RTVSPost2010PropOp35
 70
     1
102
RTVSPost2010Prop36
280
     0
102
RTVSPost2010PropOp36
 70
     1
102
RTVSPost2010Prop37
 90
       50
102
RTVSPost2010PropOp37
 70
     1
102
RTVSPost2010Prop38
140
0.0
102
RTVSPost2010PropOp38
 70
     1
102
RTVSPost2010Prop39
140
1.0
102
RTVSPost2010PropOp39
 70
     1
102
RTVSPost2010Prop40
 90
        0
102
RTVSPost2010PropOp40
 70
     1
102
RTVSPost2010Prop41ColorIndex
 90
       18
102
RTVSPost2010Prop41ColorRGB
 90
        0
102
RTVSPost2010PropOp41
 70
     1
102
RTVSPost2010Prop42
 90
       50
102
RTVSPost2010PropOp42
 70
     1
102
RTVSPost2010Prop43
 90
        3
102
RTVSPost2010PropOp43
 70
     1
102
RTVSPost2010Prop44ColorIndex
 90
        5
102
RTVSPost2010Prop44ColorRGB
 90
      255
102
RTVSPost2010PropOp44
 70
     1
102
RTVSPost2010Prop45
280
     0
102
RTVSPost2010PropOp45
 70
     1
102
RTVSPost2010Prop46
 90
       50
102
RTVSPost2010PropOp46
 70
     1
102
RTVSPost2010Prop47
 90
       50
102
RTVSPost2010PropOp47
 70
     1
102
RTVSPost2010Prop48
 90
       50
102
RTVSPost2010PropOp48
 70
     1
102
RTVSPost2010Prop49
280
     0
102
RTVSPost2010PropOp49
 70
     1
102
RTVSPost2010Prop50
 90
       50
102
RTVSPost2010PropOp50
 70
     1
102
RTVSPost2010Prop51ColorIndex
 90
      256
102
RTVSPost2010Prop51ColorRGB
 90
-16777216
102
RTVSPost2010PropOp51
 70
     0
102
RTVSPost2010Prop52
140
1.0
102
RTVSPost2010PropOp52
 70
     0
102
RTVSPost2010Prop53
 90
        2
102
RTVSPost2010PropOp53
 70
     1
102
RTVSPost2010Prop54
  1
strokes_ogs.tif
102
RTVSPost2010PropOp54
 70
     1
102
RTVSPost2010Prop55
280
     0
102
RTVSPost2010PropOp55
 70
     1
102
RTVSPost2010Prop56
140
1.0
102
RTVSPost2010PropOp56
 70
     1
102
RTVSPost2010Prop57
140
1.0
102
RTVSPost2010PropOp57
 70
     1
  0
XRECORD
  5
434
102
{ACAD_REACTORS
330
433
102
}
330
433
100
AcDbXrecord
280
     1
102
RTVSPropertyOp0
 70
     1
102
RTVSPropertyOp1
 70
     1
102
RTVSPropertyOp2
 70
     1
102
RTVSPropertyOp3
 70
     1
102
RTVSPropertyOp4
 70
     1
102
RTVSPropertyOp5
 70
     1
102
RTVSPropertyOp6
 70
     1
102
RTVSPropertyOp7
 70
     1
102
RTVSPropertyOp8
 70
     1
102
RTVSPropertyOp9
 70
     1
102
RTVSPropertyOp10
 70
     1
102
RTVSPropertyOp11
 70
     1
102
RTVSPropertyOp12
 70
     1
102
RTVSPropertyOp13
 70
     1
102
RTVSPropertyOp14
 70
     1
102
RTVSPropertyOp15
 70
     1
102
RTVSPropertyOp16
 70
     1
102
RTVSPropertyOp17
 70
     1
102
RTVSPropertyOp18
 70
     1
102
RTVSPropertyOp19
 70
     1
102
RTVSPropertyOp20
 70
     1
102
RTVSPropertyOp21
 70
     1
102
RTVSPropertyOp22
 70
     1
102
RTVSPropertyOp23
 70
     1
102
RTVSPropertyOp24
 70
     1
102
RTVSPropertyOp25
 70
     1
102
RTVSPropertyOp26
 70
     1
102
RTVSPropertyOp27
 70
     1
102
RTVSPropertyOp28
 70
     1
102
RTVSPropertyOp29
 70
     1
102
RTVSPropertyOp30
 70
     1
102
RTVSPropertyOp31
 70
     1
102
RTVSPropertyOp32
 70
     1
102
RTVSPropertyOp33
 70
     1
102
RTVSPropertyOp34
 70
     1
102
RTVSPropertyOp35
 70
     1
102
RTVSPropertyOp36
 70
     1
102
RTVSPropertyOp37
 70
     1
102
RTVSPropertyOp38
 70
     1
102
RTVSPropertyOp39
 70
     1
102
RTVSPropertyOp40
 70
     1
102
RTVSPropertyOp41
 70
     1
102
RTVSPropertyOp42
 70
     1
102
RTVSPropertyOp43
 70
     1
102
RTVSPropertyOp44
 70
     1
102
RTVSPropertyOp45
 70
     1
102
RTVSPropertyOp46
 70
     1
102
RTVSPropertyOp47
 70
     1
102
RTVSPropertyOp48
 70
     1
102
RTVSPropertyOp49
 70
     1
102
RTVSPropertyOp50
 70
     1
102
RTVSPropertyOp51
 70
     0
102
RTVSPropertyOp52
 70
     0
102
RTVSPropertyOp53
 70
     1
102
RTVSPropertyOp54
 70
     1
102
RTVSPropertyOp55
 70
     1
102
RTVSPropertyOp56
 70
     1
102
RTVSPropertyOp57
 70
     1
102
RTVSPost2010Prop28
280
     0
102
RTVSPost2010PropOp28
 70
     1
102
RTVSPost2010Prop29
280
     1
102
RTVSPost2010PropOp29
 70
     1
102
RTVSPost2010Prop30
280
     1
102
RTVSPost2010PropOp30
 70
     1
102
RTVSPost2010Prop31
280
     0
102
RTVSPost2010PropOp31
 70
     1
102
RTVSPost2010Prop32
280
     0
102
RTVSPost2010PropOp32
 70
     1
102
RTVSPost2010Prop33
280
     0
102
RTVSPost2010PropOp33
 70
     1
102
RTVSPost2010Prop34
280
     0
102
RTVSPost2010PropOp34
 70
     1
102
RTVSPost2010Prop35
280
     0
102
RTVSPost2010PropOp35
 70
     1
102
RTVSPost2010Prop36
280
     0
102
RTVSPost2010PropOp36
 70
     1
102
RTVSPost2010Prop37
 90
       50
102
RTVSPost2010PropOp37
 70
     1
102
RTVSPost2010Prop38
140
0.0
102
RTVSPost2010PropOp38
 70
     1
102
RTVSPost2010Prop39
140
1.0
102
RTVSPost2010PropOp39
 70
     1
102
RTVSPost2010Prop40
 90
        0
102
RTVSPost2010PropOp40
 70
     1
102
RTVSPost2010Prop41ColorIndex
 90
       18
102
RTVSPost2010Prop41ColorRGB
 90
        0
102
RTVSPost2010PropOp41
 70
     1
102
RTVSPost2010Prop42
 90
       50
102
RTVSPost2010PropOp42
 70
     1
102
RTVSPost2010Prop43
 90
        3
102
RTVSPost2010PropOp43
 70
     1
102
RTVSPost2010Prop44ColorIndex
 90
        5
102
RTVSPost2010Prop44ColorRGB
 90
      255
102
RTVSPost2010PropOp44
 70
     1
102
RTVSPost2010Prop45
280
     0
102
RTVSPost2010PropOp45
 70
     1
102
RTVSPost2010Prop46
 90
       50
102
RTVSPost2010PropOp46
 70
     1
102
RTVSPost2010Prop47
 90
       50
102
RTVSPost2010PropOp47
 70
     1
102
RTVSPost2010Prop48
 90
       50
102
RTVSPost2010PropOp48
 70
     1
102
RTVSPost2010Prop49
280
     0
102
RTVSPost2010PropOp49
 70
     1
102
RTVSPost2010Prop50
 90
       50
102
RTVSPost2010PropOp50
 70
     1
102
RTVSPost2010Prop51ColorIndex
 90
      256
102
RTVSPost2010Prop51ColorRGB
 90
-16777216
102
RTVSPost2010PropOp51
 70
     0
102
RTVSPost2010Prop52
140
1.0
102
RTVSPost2010PropOp52
 70
     0
102
RTVSPost2010Prop53
 90
        2
102
RTVSPost2010PropOp53
 70
     1
102
RTVSPost2010Prop54
  1
strokes_ogs.tif
102
RTVSPost2010PropOp54
 70
     1
102
RTVSPost2010Prop55
280
     0
102
RTVSPost2010PropOp55
 70
     1
102
RTVSPost2010Prop56
140
1.0
102
RTVSPost2010PropOp56
 70
     1
102
RTVSPost2010Prop57
140
1.0
102
RTVSPost2010PropOp57
 70
     1
  0
XRECORD
  5
432
102
{ACAD_REACTORS
330
431
102
}
330
431
100
AcDbXrecord
280
     1
102
RTVSPropertyOp0
 70
     1
102
RTVSPropertyOp1
 70
     1
102
RTVSPropertyOp2
 70
     1
102
RTVSPropertyOp3
 70
     1
102
RTVSPropertyOp4
 70
     1
102
RTVSPropertyOp5
 70
     1
102
RTVSPropertyOp6
 70
     1
102
RTVSPropertyOp7
 70
     1
102
RTVSPropertyOp8
 70
     1
102
RTVSPropertyOp9
 70
     1
102
RTVSPropertyOp10
 70
     1
102
RTVSPropertyOp11
 70
     1
102
RTVSPropertyOp12
 70
     1
102
RTVSPropertyOp13
 70
     1
102
RTVSPropertyOp14
 70
     1
102
RTVSPropertyOp15
 70
     1
102
RTVSPropertyOp16
 70
     1
102
RTVSPropertyOp17
 70
     1
102
RTVSPropertyOp18
 70
     1
102
RTVSPropertyOp19
 70
     1
102
RTVSPropertyOp20
 70
     1
102
RTVSPropertyOp21
 70
     1
102
RTVSPropertyOp22
 70
     1
102
RTVSPropertyOp23
 70
     1
102
RTVSPropertyOp24
 70
     1
102
RTVSPropertyOp25
 70
     1
102
RTVSPropertyOp26
 70
     1
102
RTVSPropertyOp27
 70
     1
102
RTVSPropertyOp28
 70
     1
102
RTVSPropertyOp29
 70
     1
102
RTVSPropertyOp30
 70
     1
102
RTVSPropertyOp31
 70
     1
102
RTVSPropertyOp32
 70
     1
102
RTVSPropertyOp33
 70
     1
102
RTVSPropertyOp34
 70
     1
102
RTVSPropertyOp35
 70
     1
102
RTVSPropertyOp36
 70
     1
102
RTVSPropertyOp37
 70
     1
102
RTVSPropertyOp38
 70
     1
102
RTVSPropertyOp39
 70
     1
102
RTVSPropertyOp40
 70
     1
102
RTVSPropertyOp41
 70
     1
102
RTVSPropertyOp42
 70
     1
102
RTVSPropertyOp43
 70
     1
102
RTVSPropertyOp44
 70
     1
102
RTVSPropertyOp45
 70
     1
102
RTVSPropertyOp46
 70
     1
102
RTVSPropertyOp47
 70
     1
102
RTVSPropertyOp48
 70
     1
102
RTVSPropertyOp49
 70
     1
102
RTVSPropertyOp50
 70
     1
102
RTVSPropertyOp51
 70
     0
102
RTVSPropertyOp52
 70
     0
102
RTVSPropertyOp53
 70
     1
102
RTVSPropertyOp54
 70
     1
102
RTVSPropertyOp55
 70
     1
102
RTVSPropertyOp56
 70
     1
102
RTVSPropertyOp57
 70
     1
102
RTVSPost2010Prop28
280
     0
102
RTVSPost2010PropOp28
 70
     1
102
RTVSPost2010Prop29
280
     1
102
RTVSPost2010PropOp29
 70
     1
102
RTVSPost2010Prop30
280
     1
102
RTVSPost2010PropOp30
 70
     1
102
RTVSPost2010Prop31
280
     0
102
RTVSPost2010PropOp31
 70
     1
102
RTVSPost2010Prop32
280
     0
102
RTVSPost2010PropOp32
 70
     1
102
RTVSPost2010Prop33
280
     0
102
RTVSPost2010PropOp33
 70
     1
102
RTVSPost2010Prop34
280
     0
102
RTVSPost2010PropOp34
 70
     1
102
RTVSPost2010Prop35
280
     0
102
RTVSPost2010PropOp35
 70
     1
102
RTVSPost2010Prop36
280
     0
102
RTVSPost2010PropOp36
 70
     1
102
RTVSPost2010Prop37
 90
       50
102
RTVSPost2010PropOp37
 70
     1
102
RTVSPost2010Prop38
140
0.0
102
RTVSPost2010PropOp38
 70
     1
102
RTVSPost2010Prop39
140
1.0
102
RTVSPost2010PropOp39
 70
     1
102
RTVSPost2010Prop40
 90
        0
102
RTVSPost2010PropOp40
 70
     1
102
RTVSPost2010Prop41ColorIndex
 90
       18
102
RTVSPost2010Prop41ColorRGB
 90
        0
102
RTVSPost2010PropOp41
 70
     1
102
RTVSPost2010Prop42
 90
       50
102
RTVSPost2010PropOp42
 70
     1
102
RTVSPost2010Prop43
 90
        3
102
RTVSPost2010PropOp43
 70
     1
102
RTVSPost2010Prop44ColorIndex
 90
        5
102
RTVSPost2010Prop44ColorRGB
 90
      255
102
RTVSPost2010PropOp44
 70
     1
102
RTVSPost2010Prop45
280
     0
102
RTVSPost2010PropOp45
 70
     1
102
RTVSPost2010Prop46
 90
       50
102
RTVSPost2010PropOp46
 70
     1
102
RTVSPost2010Prop47
 90
       50
102
RTVSPost2010PropOp47
 70
     1
102
RTVSPost2010Prop48
 90
       50
102
RTVSPost2010PropOp48
 70
     1
102
RTVSPost2010Prop49
280
     0
102
RTVSPost2010PropOp49
 70
     1
102
RTVSPost2010Prop50
 90
       50
102
RTVSPost2010PropOp50
 70
     1
102
RTVSPost2010Prop51ColorIndex
 90
      256
102
RTVSPost2010Prop51ColorRGB
 90
-16777216
102
RTVSPost2010PropOp51
 70
     0
102
RTVSPost2010Prop52
140
1.0
102
RTVSPost2010PropOp52
 70
     0
102
RTVSPost2010Prop53
 90
        2
102
RTVSPost2010PropOp53
 70
     1
102
RTVSPost2010Prop54
  1
strokes_ogs.tif
102
RTVSPost2010PropOp54
 70
     1
102
RTVSPost2010Prop55
280
     0
102
RTVSPost2010PropOp55
 70
     1
102
RTVSPost2010Prop56
140
1.0
102
RTVSPost2010PropOp56
 70
     1
102
RTVSPost2010Prop57
140
1.0
102
RTVSPost2010PropOp57
 70
     1
  0
XRECORD
  5
42C
102
{ACAD_REACTORS
330
42B
102
}
330
42B
100
AcDbXrecord
280
     1
102
RTVSPropertyOp0
 70
     1
102
RTVSPropertyOp1
 70
     1
102
RTVSPropertyOp2
 70
     1
102
RTVSPropertyOp3
 70
     1
102
RTVSPropertyOp4
 70
     1
102
RTVSPropertyOp5
 70
     1
102
RTVSPropertyOp6
 70
     1
102
RTVSPropertyOp7
 70
     1
102
RTVSPropertyOp8
 70
     1
102
RTVSPropertyOp9
 70
     1
102
RTVSPropertyOp10
 70
     1
102
RTVSPropertyOp11
 70
     1
102
RTVSPropertyOp12
 70
     1
102
RTVSPropertyOp13
 70
     1
102
RTVSPropertyOp14
 70
     1
102
RTVSPropertyOp15
 70
     1
102
RTVSPropertyOp16
 70
     1
102
RTVSPropertyOp17
 70
     1
102
RTVSPropertyOp18
 70
     1
102
RTVSPropertyOp19
 70
     1
102
RTVSPropertyOp20
 70
     1
102
RTVSPropertyOp21
 70
     1
102
RTVSPropertyOp22
 70
     1
102
RTVSPropertyOp23
 70
     1
102
RTVSPropertyOp24
 70
     1
102
RTVSPropertyOp25
 70
     1
102
RTVSPropertyOp26
 70
     1
102
RTVSPropertyOp27
 70
     1
102
RTVSPropertyOp28
 70
     1
102
RTVSPropertyOp29
 70
     1
102
RTVSPropertyOp30
 70
     1
102
RTVSPropertyOp31
 70
     1
102
RTVSPropertyOp32
 70
     1
102
RTVSPropertyOp33
 70
     1
102
RTVSPropertyOp34
 70
     1
102
RTVSPropertyOp35
 70
     1
102
RTVSPropertyOp36
 70
     1
102
RTVSPropertyOp37
 70
     1
102
RTVSPropertyOp38
 70
     1
102
RTVSPropertyOp39
 70
     1
102
RTVSPropertyOp40
 70
     1
102
RTVSPropertyOp41
 70
     1
102
RTVSPropertyOp42
 70
     1
102
RTVSPropertyOp43
 70
     1
102
RTVSPropertyOp44
 70
     1
102
RTVSPropertyOp45
 70
     1
102
RTVSPropertyOp46
 70
     1
102
RTVSPropertyOp47
 70
     1
102
RTVSPropertyOp48
 70
     1
102
RTVSPropertyOp49
 70
     1
102
RTVSPropertyOp50
 70
     1
102
RTVSPropertyOp51
 70
     0
102
RTVSPropertyOp52
 70
     0
102
RTVSPropertyOp53
 70
     1
102
RTVSPropertyOp54
 70
     1
102
RTVSPropertyOp55
 70
     1
102
RTVSPropertyOp56
 70
     1
102
RTVSPropertyOp57
 70
     1
102
RTVSPost2010Prop28
280
     0
102
RTVSPost2010PropOp28
 70
     1
102
RTVSPost2010Prop29
280
     1
102
RTVSPost2010PropOp29
 70
     1
102
RTVSPost2010Prop30
280
     1
102
RTVSPost2010PropOp30
 70
     1
102
RTVSPost2010Prop31
280
     0
102
RTVSPost2010PropOp31
 70
     1
102
RTVSPost2010Prop32
280
     0
102
RTVSPost2010PropOp32
 70
     1
102
RTVSPost2010Prop33
280
     0
102
RTVSPost2010PropOp33
 70
     1
102
RTVSPost2010Prop34
280
     0
102
RTVSPost2010PropOp34
 70
     1
102
RTVSPost2010Prop35
280
     0
102
RTVSPost2010PropOp35
 70
     1
102
RTVSPost2010Prop36
280
     0
102
RTVSPost2010PropOp36
 70
     1
102
RTVSPost2010Prop37
 90
       50
102
RTVSPost2010PropOp37
 70
     1
102
RTVSPost2010Prop38
140
0.0
102
RTVSPost2010PropOp38
 70
     1
102
RTVSPost2010Prop39
140
1.0
102
RTVSPost2010PropOp39
 70
     1
102
RTVSPost2010Prop40
 90
        0
102
RTVSPost2010PropOp40
 70
     1
102
RTVSPost2010Prop41ColorIndex
 90
       18
102
RTVSPost2010Prop41ColorRGB
 90
        0
102
RTVSPost2010PropOp41
 70
     1
102
RTVSPost2010Prop42
 90
       50
102
RTVSPost2010PropOp42
 70
     1
102
RTVSPost2010Prop43
 90
        3
102
RTVSPost2010PropOp43
 70
     1
102
RTVSPost2010Prop44ColorIndex
 90
        5
102
RTVSPost2010Prop44ColorRGB
 90
      255
102
RTVSPost2010PropOp44
 70
     1
102
RTVSPost2010Prop45
280
     0
102
RTVSPost2010PropOp45
 70
     1
102
RTVSPost2010Prop46
 90
       50
102
RTVSPost2010PropOp46
 70
     1
102
RTVSPost2010Prop47
 90
       50
102
RTVSPost2010PropOp47
 70
     1
102
RTVSPost2010Prop48
 90
       50
102
RTVSPost2010PropOp48
 70
     1
102
RTVSPost2010Prop49
280
     0
102
RTVSPost2010PropOp49
 70
     1
102
RTVSPost2010Prop50
 90
       50
102
RTVSPost2010PropOp50
 70
     1
102
RTVSPost2010Prop51ColorIndex
 90
      256
102
RTVSPost2010Prop51ColorRGB
 90
-16777216
102
RTVSPost2010PropOp51
 70
     0
102
RTVSPost2010Prop52
140
1.0
102
RTVSPost2010PropOp52
 70
     0
102
RTVSPost2010Prop53
 90
        2
102
RTVSPost2010PropOp53
 70
     1
102
RTVSPost2010Prop54
  1
strokes_ogs.tif
102
RTVSPost2010PropOp54
 70
     1
102
RTVSPost2010Prop55
280
     0
102
RTVSPost2010PropOp55
 70
     1
102
RTVSPost2010Prop56
140
1.0
102
RTVSPost2010PropOp56
 70
     1
102
RTVSPost2010Prop57
140
1.0
102
RTVSPost2010PropOp57
 70
     1
  0
XRECORD
  5
42E
102
{ACAD_REACTORS
330
42D
102
}
330
42D
100
AcDbXrecord
280
     1
102
RTVSPropertyOp0
 70
     1
102
RTVSPropertyOp1
 70
     1
102
RTVSPropertyOp2
 70
     1
102
RTVSPropertyOp3
 70
     1
102
RTVSPropertyOp4
 70
     1
102
RTVSPropertyOp5
 70
     1
102
RTVSPropertyOp6
 70
     1
102
RTVSPropertyOp7
 70
     1
102
RTVSPropertyOp8
 70
     1
102
RTVSPropertyOp9
 70
     1
102
RTVSPropertyOp10
 70
     1
102
RTVSPropertyOp11
 70
     1
102
RTVSPropertyOp12
 70
     1
102
RTVSPropertyOp13
 70
     1
102
RTVSPropertyOp14
 70
     1
102
RTVSPropertyOp15
 70
     1
102
RTVSPropertyOp16
 70
     1
102
RTVSPropertyOp17
 70
     1
102
RTVSPropertyOp18
 70
     1
102
RTVSPropertyOp19
 70
     1
102
RTVSPropertyOp20
 70
     1
102
RTVSPropertyOp21
 70
     1
102
RTVSPropertyOp22
 70
     1
102
RTVSPropertyOp23
 70
     1
102
RTVSPropertyOp24
 70
     1
102
RTVSPropertyOp25
 70
     1
102
RTVSPropertyOp26
 70
     1
102
RTVSPropertyOp27
 70
     1
102
RTVSPropertyOp28
 70
     1
102
RTVSPropertyOp29
 70
     1
102
RTVSPropertyOp30
 70
     1
102
RTVSPropertyOp31
 70
     1
102
RTVSPropertyOp32
 70
     1
102
RTVSPropertyOp33
 70
     1
102
RTVSPropertyOp34
 70
     1
102
RTVSPropertyOp35
 70
     1
102
RTVSPropertyOp36
 70
     1
102
RTVSPropertyOp37
 70
     1
102
RTVSPropertyOp38
 70
     1
102
RTVSPropertyOp39
 70
     1
102
RTVSPropertyOp40
 70
     1
102
RTVSPropertyOp41
 70
     1
102
RTVSPropertyOp42
 70
     1
102
RTVSPropertyOp43
 70
     1
102
RTVSPropertyOp44
 70
     1
102
RTVSPropertyOp45
 70
     1
102
RTVSPropertyOp46
 70
     1
102
RTVSPropertyOp47
 70
     1
102
RTVSPropertyOp48
 70
     1
102
RTVSPropertyOp49
 70
     1
102
RTVSPropertyOp50
 70
     1
102
RTVSPropertyOp51
 70
     0
102
RTVSPropertyOp52
 70
     0
102
RTVSPropertyOp53
 70
     1
102
RTVSPropertyOp54
 70
     1
102
RTVSPropertyOp55
 70
     1
102
RTVSPropertyOp56
 70
     1
102
RTVSPropertyOp57
 70
     1
102
RTVSPost2010Prop28
280
     0
102
RTVSPost2010PropOp28
 70
     1
102
RTVSPost2010Prop29
280
     1
102
RTVSPost2010PropOp29
 70
     1
102
RTVSPost2010Prop30
280
     1
102
RTVSPost2010PropOp30
 70
     1
102
RTVSPost2010Prop31
280
     0
102
RTVSPost2010PropOp31
 70
     1
102
RTVSPost2010Prop32
280
     0
102
RTVSPost2010PropOp32
 70
     1
102
RTVSPost2010Prop33
280
     0
102
RTVSPost2010PropOp33
 70
     1
102
RTVSPost2010Prop34
280
     0
102
RTVSPost2010PropOp34
 70
     1
102
RTVSPost2010Prop35
280
     0
102
RTVSPost2010PropOp35
 70
     1
102
RTVSPost2010Prop36
280
     0
102
RTVSPost2010PropOp36
 70
     1
102
RTVSPost2010Prop37
 90
       50
102
RTVSPost2010PropOp37
 70
     1
102
RTVSPost2010Prop38
140
0.0
102
RTVSPost2010PropOp38
 70
     1
102
RTVSPost2010Prop39
140
1.0
102
RTVSPost2010PropOp39
 70
     1
102
RTVSPost2010Prop40
 90
        0
102
RTVSPost2010PropOp40
 70
     1
102
RTVSPost2010Prop41ColorIndex
 90
       18
102
RTVSPost2010Prop41ColorRGB
 90
        0
102
RTVSPost2010PropOp41
 70
     1
102
RTVSPost2010Prop42
 90
       50
102
RTVSPost2010PropOp42
 70
     1
102
RTVSPost2010Prop43
 90
        3
102
RTVSPost2010PropOp43
 70
     1
102
RTVSPost2010Prop44ColorIndex
 90
        5
102
RTVSPost2010Prop44ColorRGB
 90
      255
102
RTVSPost2010PropOp44
 70
     1
102
RTVSPost2010Prop45
280
     0
102
RTVSPost2010PropOp45
 70
     1
102
RTVSPost2010Prop46
 90
       50
102
RTVSPost2010PropOp46
 70
     1
102
RTVSPost2010Prop47
 90
       50
102
RTVSPost2010PropOp47
 70
     1
102
RTVSPost2010Prop48
 90
       50
102
RTVSPost2010PropOp48
 70
     1
102
RTVSPost2010Prop49
280
     0
102
RTVSPost2010PropOp49
 70
     1
102
RTVSPost2010Prop50
 90
       50
102
RTVSPost2010PropOp50
 70
     1
102
RTVSPost2010Prop51ColorIndex
 90
      256
102
RTVSPost2010Prop51ColorRGB
 90
-16777216
102
RTVSPost2010PropOp51
 70
     0
102
RTVSPost2010Prop52
140
1.0
102
RTVSPost2010PropOp52
 70
     0
102
RTVSPost2010Prop53
 90
        2
102
RTVSPost2010PropOp53
 70
     1
102
RTVSPost2010Prop54
  1
strokes_ogs.tif
102
RTVSPost2010PropOp54
 70
     1
102
RTVSPost2010Prop55
280
     0
102
RTVSPost2010PropOp55
 70
     1
102
RTVSPost2010Prop56
140
1.0
102
RTVSPost2010PropOp56
 70
     1
102
RTVSPost2010Prop57
140
1.0
102
RTVSPost2010PropOp57
 70
     1
  0
XRECORD
  5
41E
102
{ACAD_REACTORS
330
41D
102
}
330
41D
100
AcDbXrecord
280
     1
102
RTVSPropertyOp0
 70
     1
102
RTVSPropertyOp1
 70
     1
102
RTVSPropertyOp2
 70
     1
102
RTVSPropertyOp3
 70
     1
102
RTVSPropertyOp4
 70
     1
102
RTVSPropertyOp5
 70
     1
102
RTVSPropertyOp6
 70
     1
102
RTVSPropertyOp7
 70
     1
102
RTVSPropertyOp8
 70
     1
102
RTVSPropertyOp9
 70
     1
102
RTVSPropertyOp10
 70
     1
102
RTVSPropertyOp11
 70
     1
102
RTVSPropertyOp12
 70
     1
102
RTVSPropertyOp13
 70
     1
102
RTVSPropertyOp14
 70
     1
102
RTVSPropertyOp15
 70
     1
102
RTVSPropertyOp16
 70
     1
102
RTVSPropertyOp17
 70
     1
102
RTVSPropertyOp18
 70
     1
102
RTVSPropertyOp19
 70
     1
102
RTVSPropertyOp20
 70
     1
102
RTVSPropertyOp21
 70
     1
102
RTVSPropertyOp22
 70
     1
102
RTVSPropertyOp23
 70
     1
102
RTVSPropertyOp24
 70
     1
102
RTVSPropertyOp25
 70
     1
102
RTVSPropertyOp26
 70
     1
102
RTVSPropertyOp27
 70
     1
102
RTVSPropertyOp28
 70
     1
102
RTVSPropertyOp29
 70
     1
102
RTVSPropertyOp30
 70
     1
102
RTVSPropertyOp31
 70
     1
102
RTVSPropertyOp32
 70
     1
102
RTVSPropertyOp33
 70
     1
102
RTVSPropertyOp34
 70
     1
102
RTVSPropertyOp35
 70
     1
102
RTVSPropertyOp36
 70
     1
102
RTVSPropertyOp37
 70
     1
102
RTVSPropertyOp38
 70
     1
102
RTVSPropertyOp39
 70
     1
102
RTVSPropertyOp40
 70
     1
102
RTVSPropertyOp41
 70
     1
102
RTVSPropertyOp42
 70
     1
102
RTVSPropertyOp43
 70
     1
102
RTVSPropertyOp44
 70
     1
102
RTVSPropertyOp45
 70
     1
102
RTVSPropertyOp46
 70
     1
102
RTVSPropertyOp47
 70
     1
102
RTVSPropertyOp48
 70
     1
102
RTVSPropertyOp49
 70
     1
102
RTVSPropertyOp50
 70
     1
102
RTVSPropertyOp51
 70
     0
102
RTVSPropertyOp52
 70
     0
102
RTVSPropertyOp53
 70
     1
102
RTVSPropertyOp54
 70
     1
102
RTVSPropertyOp55
 70
     1
102
RTVSPropertyOp56
 70
     1
102
RTVSPropertyOp57
 70
     1
102
RTVSPost2010Prop28
280
     0
102
RTVSPost2010PropOp28
 70
     1
102
RTVSPost2010Prop29
280
     1
102
RTVSPost2010PropOp29
 70
     1
102
RTVSPost2010Prop30
280
     1
102
RTVSPost2010PropOp30
 70
     1
102
RTVSPost2010Prop31
280
     0
102
RTVSPost2010PropOp31
 70
     1
102
RTVSPost2010Prop32
280
     0
102
RTVSPost2010PropOp32
 70
     1
102
RTVSPost2010Prop33
280
     0
102
RTVSPost2010PropOp33
 70
     1
102
RTVSPost2010Prop34
280
     0
102
RTVSPost2010PropOp34
 70
     1
102
RTVSPost2010Prop35
280
     0
102
RTVSPost2010PropOp35
 70
     1
102
RTVSPost2010Prop36
280
     0
102
RTVSPost2010PropOp36
 70
     1
102
RTVSPost2010Prop37
 90
       50
102
RTVSPost2010PropOp37
 70
     1
102
RTVSPost2010Prop38
140
0.0
102
RTVSPost2010PropOp38
 70
     1
102
RTVSPost2010Prop39
140
1.0
102
RTVSPost2010PropOp39
 70
     1
102
RTVSPost2010Prop40
 90
        0
102
RTVSPost2010PropOp40
 70
     1
102
RTVSPost2010Prop41ColorIndex
 90
       18
102
RTVSPost2010Prop41ColorRGB
 90
        0
102
RTVSPost2010PropOp41
 70
     1
102
RTVSPost2010Prop42
 90
       50
102
RTVSPost2010PropOp42
 70
     1
102
RTVSPost2010Prop43
 90
        3
102
RTVSPost2010PropOp43
 70
     1
102
RTVSPost2010Prop44ColorIndex
 90
        5
102
RTVSPost2010Prop44ColorRGB
 90
      255
102
RTVSPost2010PropOp44
 70
     1
102
RTVSPost2010Prop45
280
     0
102
RTVSPost2010PropOp45
 70
     1
102
RTVSPost2010Prop46
 90
       50
102
RTVSPost2010PropOp46
 70
     1
102
RTVSPost2010Prop47
 90
       50
102
RTVSPost2010PropOp47
 70
     1
102
RTVSPost2010Prop48
 90
       50
102
RTVSPost2010PropOp48
 70
     1
102
RTVSPost2010Prop49
280
     0
102
RTVSPost2010PropOp49
 70
     1
102
RTVSPost2010Prop50
 90
       50
102
RTVSPost2010PropOp50
 70
     1
102
RTVSPost2010Prop51ColorIndex
 90
      256
102
RTVSPost2010Prop51ColorRGB
 90
-16777216
102
RTVSPost2010PropOp51
 70
     0
102
RTVSPost2010Prop52
140
1.0
102
RTVSPost2010PropOp52
 70
     0
102
RTVSPost2010Prop53
 90
        2
102
RTVSPost2010PropOp53
 70
     1
102
RTVSPost2010Prop54
  1
strokes_ogs.tif
102
RTVSPost2010PropOp54
 70
     1
102
RTVSPost2010Prop55
280
     0
102
RTVSPost2010PropOp55
 70
     1
102
RTVSPost2010Prop56
140
1.0
102
RTVSPost2010PropOp56
 70
     1
102
RTVSPost2010Prop57
140
1.0
102
RTVSPost2010PropOp57
 70
     1
  0
XRECORD
  5
410
102
{ACAD_REACTORS
330
40F
102
}
330
40F
100
AcDbXrecord
280
     1
102
RTVSPropertyOp0
 70
     1
102
RTVSPropertyOp1
 70
     1
102
RTVSPropertyOp2
 70
     1
102
RTVSPropertyOp3
 70
     1
102
RTVSPropertyOp4
 70
     1
102
RTVSPropertyOp5
 70
     1
102
RTVSPropertyOp6
 70
     1
102
RTVSPropertyOp7
 70
     1
102
RTVSPropertyOp8
 70
     1
102
RTVSPropertyOp9
 70
     1
102
RTVSPropertyOp10
 70
     1
102
RTVSPropertyOp11
 70
     1
102
RTVSPropertyOp12
 70
     1
102
RTVSPropertyOp13
 70
     1
102
RTVSPropertyOp14
 70
     1
102
RTVSPropertyOp15
 70
     1
102
RTVSPropertyOp16
 70
     1
102
RTVSPropertyOp17
 70
     1
102
RTVSPropertyOp18
 70
     1
102
RTVSPropertyOp19
 70
     1
102
RTVSPropertyOp20
 70
     1
102
RTVSPropertyOp21
 70
     1
102
RTVSPropertyOp22
 70
     1
102
RTVSPropertyOp23
 70
     1
102
RTVSPropertyOp24
 70
     1
102
RTVSPropertyOp25
 70
     1
102
RTVSPropertyOp26
 70
     1
102
RTVSPropertyOp27
 70
     1
102
RTVSPropertyOp28
 70
     1
102
RTVSPropertyOp29
 70
     1
102
RTVSPropertyOp30
 70
     1
102
RTVSPropertyOp31
 70
     1
102
RTVSPropertyOp32
 70
     1
102
RTVSPropertyOp33
 70
     1
102
RTVSPropertyOp34
 70
     1
102
RTVSPropertyOp35
 70
     1
102
RTVSPropertyOp36
 70
     1
102
RTVSPropertyOp37
 70
     1
102
RTVSPropertyOp38
 70
     1
102
RTVSPropertyOp39
 70
     1
102
RTVSPropertyOp40
 70
     1
102
RTVSPropertyOp41
 70
     1
102
RTVSPropertyOp42
 70
     1
102
RTVSPropertyOp43
 70
     1
102
RTVSPropertyOp44
 70
     1
102
RTVSPropertyOp45
 70
     1
102
RTVSPropertyOp46
 70
     1
102
RTVSPropertyOp47
 70
     1
102
RTVSPropertyOp48
 70
     1
102
RTVSPropertyOp49
 70
     1
102
RTVSPropertyOp50
 70
     1
102
RTVSPropertyOp51
 70
     0
102
RTVSPropertyOp52
 70
     0
102
RTVSPropertyOp53
 70
     1
102
RTVSPropertyOp54
 70
     1
102
RTVSPropertyOp55
 70
     1
102
RTVSPropertyOp56
 70
     1
102
RTVSPropertyOp57
 70
     1
102
RTVSPost2010Prop28
280
     0
102
RTVSPost2010PropOp28
 70
     1
102
RTVSPost2010Prop29
280
     1
102
RTVSPost2010PropOp29
 70
     1
102
RTVSPost2010Prop30
280
     1
102
RTVSPost2010PropOp30
 70
     1
102
RTVSPost2010Prop31
280
     0
102
RTVSPost2010PropOp31
 70
     1
102
RTVSPost2010Prop32
280
     0
102
RTVSPost2010PropOp32
 70
     1
102
RTVSPost2010Prop33
280
     0
102
RTVSPost2010PropOp33
 70
     1
102
RTVSPost2010Prop34
280
     0
102
RTVSPost2010PropOp34
 70
     1
102
RTVSPost2010Prop35
280
     0
102
RTVSPost2010PropOp35
 70
     1
102
RTVSPost2010Prop36
280
     0
102
RTVSPost2010PropOp36
 70
     1
102
RTVSPost2010Prop37
 90
       50
102
RTVSPost2010PropOp37
 70
     1
102
RTVSPost2010Prop38
140
0.0
102
RTVSPost2010PropOp38
 70
     1
102
RTVSPost2010Prop39
140
1.0
102
RTVSPost2010PropOp39
 70
     1
102
RTVSPost2010Prop40
 90
        0
102
RTVSPost2010PropOp40
 70
     1
102
RTVSPost2010Prop41ColorIndex
 90
       18
102
RTVSPost2010Prop41ColorRGB
 90
        0
102
RTVSPost2010PropOp41
 70
     1
102
RTVSPost2010Prop42
 90
       50
102
RTVSPost2010PropOp42
 70
     1
102
RTVSPost2010Prop43
 90
        3
102
RTVSPost2010PropOp43
 70
     1
102
RTVSPost2010Prop44ColorIndex
 90
        5
102
RTVSPost2010Prop44ColorRGB
 90
      255
102
RTVSPost2010PropOp44
 70
     1
102
RTVSPost2010Prop45
280
     0
102
RTVSPost2010PropOp45
 70
     1
102
RTVSPost2010Prop46
 90
       50
102
RTVSPost2010PropOp46
 70
     1
102
RTVSPost2010Prop47
 90
       50
102
RTVSPost2010PropOp47
 70
     1
102
RTVSPost2010Prop48
 90
       50
102
RTVSPost2010PropOp48
 70
     1
102
RTVSPost2010Prop49
280
     0
102
RTVSPost2010PropOp49
 70
     1
102
RTVSPost2010Prop50
 90
       50
102
RTVSPost2010PropOp50
 70
     1
102
RTVSPost2010Prop51ColorIndex
 90
      256
102
RTVSPost2010Prop51ColorRGB
 90
-16777216
102
RTVSPost2010PropOp51
 70
     0
102
RTVSPost2010Prop52
140
1.0
102
RTVSPost2010PropOp52
 70
     0
102
RTVSPost2010Prop53
 90
        2
102
RTVSPost2010PropOp53
 70
     1
102
RTVSPost2010Prop54
  1
strokes_ogs.tif
102
RTVSPost2010PropOp54
 70
     1
102
RTVSPost2010Prop55
280
     0
102
RTVSPost2010PropOp55
 70
     1
102
RTVSPost2010Prop56
140
1.0
102
RTVSPost2010PropOp56
 70
     1
102
RTVSPost2010Prop57
140
1.0
102
RTVSPost2010PropOp57
 70
     1
  0
XRECORD
  5
430
102
{ACAD_REACTORS
330
42F
102
}
330
42F
100
AcDbXrecord
280
     1
102
RTVSPropertyOp0
 70
     1
102
RTVSPropertyOp1
 70
     1
102
RTVSPropertyOp2
 70
     1
102
RTVSPropertyOp3
 70
     1
102
RTVSPropertyOp4
 70
     1
102
RTVSPropertyOp5
 70
     1
102
RTVSPropertyOp6
 70
     1
102
RTVSPropertyOp7
 70
     1
102
RTVSPropertyOp8
 70
     1
102
RTVSPropertyOp9
 70
     1
102
RTVSPropertyOp10
 70
     1
102
RTVSPropertyOp11
 70
     1
102
RTVSPropertyOp12
 70
     1
102
RTVSPropertyOp13
 70
     1
102
RTVSPropertyOp14
 70
     1
102
RTVSPropertyOp15
 70
     1
102
RTVSPropertyOp16
 70
     1
102
RTVSPropertyOp17
 70
     1
102
RTVSPropertyOp18
 70
     1
102
RTVSPropertyOp19
 70
     1
102
RTVSPropertyOp20
 70
     1
102
RTVSPropertyOp21
 70
     1
102
RTVSPropertyOp22
 70
     1
102
RTVSPropertyOp23
 70
     1
102
RTVSPropertyOp24
 70
     1
102
RTVSPropertyOp25
 70
     1
102
RTVSPropertyOp26
 70
     1
102
RTVSPropertyOp27
 70
     1
102
RTVSPropertyOp28
 70
     1
102
RTVSPropertyOp29
 70
     1
102
RTVSPropertyOp30
 70
     1
102
RTVSPropertyOp31
 70
     1
102
RTVSPropertyOp32
 70
     1
102
RTVSPropertyOp33
 70
     1
102
RTVSPropertyOp34
 70
     1
102
RTVSPropertyOp35
 70
     1
102
RTVSPropertyOp36
 70
     1
102
RTVSPropertyOp37
 70
     1
102
RTVSPropertyOp38
 70
     1
102
RTVSPropertyOp39
 70
     1
102
RTVSPropertyOp40
 70
     1
102
RTVSPropertyOp41
 70
     1
102
RTVSPropertyOp42
 70
     1
102
RTVSPropertyOp43
 70
     1
102
RTVSPropertyOp44
 70
     1
102
RTVSPropertyOp45
 70
     1
102
RTVSPropertyOp46
 70
     1
102
RTVSPropertyOp47
 70
     1
102
RTVSPropertyOp48
 70
     1
102
RTVSPropertyOp49
 70
     1
102
RTVSPropertyOp50
 70
     1
102
RTVSPropertyOp51
 70
     0
102
RTVSPropertyOp52
 70
     0
102
RTVSPropertyOp53
 70
     1
102
RTVSPropertyOp54
 70
     1
102
RTVSPropertyOp55
 70
     1
102
RTVSPropertyOp56
 70
     1
102
RTVSPropertyOp57
 70
     1
102
RTVSPost2010Prop28
280
     0
102
RTVSPost2010PropOp28
 70
     1
102
RTVSPost2010Prop29
280
     1
102
RTVSPost2010PropOp29
 70
     1
102
RTVSPost2010Prop30
280
     1
102
RTVSPost2010PropOp30
 70
     1
102
RTVSPost2010Prop31
280
     0
102
RTVSPost2010PropOp31
 70
     1
102
RTVSPost2010Prop32
280
     0
102
RTVSPost2010PropOp32
 70
     1
102
RTVSPost2010Prop33
280
     0
102
RTVSPost2010PropOp33
 70
     1
102
RTVSPost2010Prop34
280
     0
102
RTVSPost2010PropOp34
 70
     1
102
RTVSPost2010Prop35
280
     0
102
RTVSPost2010PropOp35
 70
     1
102
RTVSPost2010Prop36
280
     0
102
RTVSPost2010PropOp36
 70
     1
102
RTVSPost2010Prop37
 90
       50
102
RTVSPost2010PropOp37
 70
     1
102
RTVSPost2010Prop38
140
0.0
102
RTVSPost2010PropOp38
 70
     1
102
RTVSPost2010Prop39
140
1.0
102
RTVSPost2010PropOp39
 70
     1
102
RTVSPost2010Prop40
 90
        0
102
RTVSPost2010PropOp40
 70
     1
102
RTVSPost2010Prop41ColorIndex
 90
       18
102
RTVSPost2010Prop41ColorRGB
 90
        0
102
RTVSPost2010PropOp41
 70
     1
102
RTVSPost2010Prop42
 90
       50
102
RTVSPost2010PropOp42
 70
     1
102
RTVSPost2010Prop43
 90
        3
102
RTVSPost2010PropOp43
 70
     1
102
RTVSPost2010Prop44ColorIndex
 90
        5
102
RTVSPost2010Prop44ColorRGB
 90
      255
102
RTVSPost2010PropOp44
 70
     1
102
RTVSPost2010Prop45
280
     0
102
RTVSPost2010PropOp45
 70
     1
102
RTVSPost2010Prop46
 90
       50
102
RTVSPost2010PropOp46
 70
     1
102
RTVSPost2010Prop47
 90
       50
102
RTVSPost2010PropOp47
 70
     1
102
RTVSPost2010Prop48
 90
       50
102
RTVSPost2010PropOp48
 70
     1
102
RTVSPost2010Prop49
280
     0
102
RTVSPost2010PropOp49
 70
     1
102
RTVSPost2010Prop50
 90
       50
102
RTVSPost2010PropOp50
 70
     1
102
RTVSPost2010Prop51ColorIndex
 90
      256
102
RTVSPost2010Prop51ColorRGB
 90
-16777216
102
RTVSPost2010PropOp51
 70
     0
102
RTVSPost2010Prop52
140
1.0
102
RTVSPost2010PropOp52
 70
     0
102
RTVSPost2010Prop53
 90
        2
102
RTVSPost2010PropOp53
 70
     1
102
RTVSPost2010Prop54
  1
strokes_ogs.tif
102
RTVSPost2010PropOp54
 70
     1
102
RTVSPost2010Prop55
280
     0
102
RTVSPost2010PropOp55
 70
     1
102
RTVSPost2010Prop56
140
1.0
102
RTVSPost2010PropOp56
 70
     1
102
RTVSPost2010Prop57
140
1.0
102
RTVSPost2010PropOp57
 70
     1
  0
ENDSEC
  0
EOF
